  0
SECTION
  2
HEADER
  9
$ACADVER
  1
AC1015
  9
$ACADMAINTVER
 70
     6
  9
$DWGCODEPAGE
  3
ANSI_1252
  9
$INSBASE
 10
0.0
 20
0.0
 30
0.0
  9
$EXTMIN
 10
0.0
 20
0.0
 30
0.0
  9
$EXTMAX
 10
841.0
 20
594.0
 30
0.0
  9
$LIMMIN
 10
0.0
 20
0.0
  9
$LIMMAX
 10
841.0
 20
594.0
  9
$ORTHOMODE
 70
     0
  9
$REGENMODE
 70
     1
  9
$FILLMODE
 70
     1
  9
$QTEXTMODE
 70
     0
  9
$MIRRTEXT
 70
     1
  9
$LTSCALE
 40
1.0
  9
$ATTMODE
 70
     1
  9
$TEXTSIZE
 40
3.0
  9
$TRACEWID
 40
1.0
  9
$TEXTSTYLE
  7
Standard
  9
$CLAYER
  8
0
  9
$CELTYPE
  6
ByLayer
  9
$CECOLOR
 62
   256
  9
$CELTSCALE
 40
1.0
  9
$DISPSILH
 70
     0
  9
$DIMSCALE
 40
1.0
  9
$DIMASZ
 40
3.0
  9
$DIMEXO
 40
1.0
  9
$DIMDLI
 40
3.75
  9
$DIMRND
 40
0.0
  9
$DIMDLE
 40
0.0
  9
$DIMEXE
 40
1.0
  9
$DIMTP
 40
0.0
  9
$DIMTM
 40
0.0
  9
$DIMTXT
 40
3.0
  9
$DIMCEN
 40
2.5
  9
$DIMTSZ
 40
0.0
  9
$DIMTOL
 70
     0
  9
$DIMLIM
 70
     0
  9
$DIMTIH
 70
     1
  9
$DIMTOH
 70
     1
  9
$DIMSE1
 70
     0
  9
$DIMSE2
 70
     0
  9
$DIMTAD
 70
     1
  9
$DIMZIN
 70
     0
  9
$DIMBLK
  1

  9
$DIMASO
 70
     1
  9
$DIMSHO
 70
     1
  9
$DIMPOST
  1

  9
$DIMAPOST
  1

  9
$DIMALT
 70
     0
  9
$DIMALTD
 70
     3
  9
$DIMALTF
 40
0.0393700787
  9
$DIMLFAC
 40
1.0
  9
$DIMTOFL
 70
     1
  9
$DIMTVP
 40
0.0
  9
$DIMTIX
 70
     0
  9
$DIMSOXD
 70
     0
  9
$DIMSAH
 70
     0
  9
$DIMBLK1
  1

  9
$DIMBLK2
  1

  9
$DIMSTYLE
  2
ISO-25
  9
$DIMCLRD
 70
     0
  9
$DIMCLRE
 70
     0
  9
$DIMCLRT
 70
     0
  9
$DIMTFAC
 40
1.0
  9
$DIMGAP
 40
3.0
  9
$DIMJUST
 70
     0
  9
$DIMSD1
 70
     0
  9
$DIMSD2
 70
     0
  9
$DIMTOLJ
 70
     0
  9
$DIMTZIN
 70
     0
  9
$DIMALTZ
 70
     0
  9
$DIMALTTZ
 70
     0
  9
$DIMUPT
 70
     0
  9
$DIMDEC
 70
     2
  9
$DIMTDEC
 70
     3
  9
$DIMALTU
 70
     2
  9
$DIMALTTD
 70
     3
  9
$DIMTXSTY
  7
Standard
  9
$DIMAUNIT
 70
     0
  9
$DIMADEC
 70
     2
  9
$DIMALTRND
 40
0.0
  9
$DIMAZIN
 70
     0
  9
$DIMDSEP
 70
    44
  9
$DIMATFIT
 70
     3
  9
$DIMFRAC
 70
     0
  9
$DIMLDRBLK
  1

  9
$DIMLUNIT
 70
     2
  9
$DIMLWD
 70
    -2
  9
$DIMLWE
 70
    -2
  9
$DIMTMOVE
 70
     0
  9
$LUNITS
 70
     2
  9
$LUPREC
 70
     2
  9
$SKETCHINC
 40
1.0
  9
$FILLETRAD
 40
10.0
  9
$AUNITS
 70
     0
  9
$AUPREC
 70
     2
  9
$MENU
  1
.
  9
$ELEVATION
 40
0.0
  9
$PELEVATION
 40
0.0
  9
$THICKNESS
 40
0.0
  9
$LIMCHECK
 70
     0
  9
$CHAMFERA
 40
0.0
  9
$CHAMFERB
 40
0.0
  9
$CHAMFERC
 40
0.0
  9
$CHAMFERD
 40
0.0
  9
$SKPOLY
 70
     0
  9
$TDCREATE
 40
2457877.514211609
  9
$TDUCREATE
 40
2457877.430878276
  9
$TDUPDATE
 40
2457877.514212419
  9
$TDUUPDATE
 40
2457877.430879086
  9
$TDINDWG
 40
0.0000000116
  9
$TDUSRTIMER
 40
0.0000000116
  9
$USRTIMER
 70
     1
  9
$ANGBASE
 50
0.0
  9
$ANGDIR
 70
     0
  9
$PDMODE
 70
     0
  9
$PDSIZE
 40
-1.0
  9
$PLINEWID
 40
0.0
  9
$SPLFRAME
 70
     0
  9
$SPLINETYPE
 70
     6
  9
$SPLINESEGS
 70
     8
  9
$HANDSEED
  5
2D2
  9
$SURFTAB1
 70
     6
  9
$SURFTAB2
 70
     6
  9
$SURFTYPE
 70
     6
  9
$SURFU
 70
     6
  9
$SURFV
 70
     6
  9
$UCSBASE
  2

  9
$UCSNAME
  2

  9
$UCSORG
 10
0.0
 20
0.0
 30
0.0
  9
$UCSXDIR
 10
1.0
 20
0.0
 30
0.0
  9
$UCSYDIR
 10
0.0
 20
1.0
 30
0.0
  9
$UCSORTHOREF
  2

  9
$UCSORTHOVIEW
 70
     0
  9
$UCSORGTOP
 10
0.0
 20
0.0
 30
0.0
  9
$UCSORGBOTTOM
 10
0.0
 20
0.0
 30
0.0
  9
$UCSORGLEFT
 10
0.0
 20
0.0
 30
0.0
  9
$UCSORGRIGHT
 10
0.0
 20
0.0
 30
0.0
  9
$UCSORGFRONT
 10
0.0
 20
0.0
 30
0.0
  9
$UCSORGBACK
 10
0.0
 20
0.0
 30
0.0
  9
$PUCSBASE
  2

  9
$PUCSNAME
  2

  9
$PUCSORG
 10
0.0
 20
0.0
 30
0.0
  9
$PUCSXDIR
 10
1.0
 20
0.0
 30
0.0
  9
$PUCSYDIR
 10
0.0
 20
1.0
 30
0.0
  9
$PUCSORTHOREF
  2

  9
$PUCSORTHOVIEW
 70
     0
  9
$PUCSORGTOP
 10
0.0
 20
0.0
 30
0.0
  9
$PUCSORGBOTTOM
 10
0.0
 20
0.0
 30
0.0
  9
$PUCSORGLEFT
 10
0.0
 20
0.0
 30
0.0
  9
$PUCSORGRIGHT
 10
0.0
 20
0.0
 30
0.0
  9
$PUCSORGFRONT
 10
0.0
 20
0.0
 30
0.0
  9
$PUCSORGBACK
 10
0.0
 20
0.0
 30
0.0
  9
$USERI1
 70
     0
  9
$USERI2
 70
     0
  9
$USERI3
 70
     0
  9
$USERI4
 70
     0
  9
$USERI5
 70
     0
  9
$USERR1
 40
0.0
  9
$USERR2
 40
0.0
  9
$USERR3
 40
0.0
  9
$USERR4
 40
0.0
  9
$USERR5
 40
0.0
  9
$WORLDVIEW
 70
     1
  9
$SHADEDGE
 70
     3
  9
$SHADEDIF
 70
    70
  9
$TILEMODE
 70
     1
  9
$MAXACTVP
 70
    64
  9
$PINSBASE
 10
0.0
 20
0.0
 30
0.0
  9
$PLIMCHECK
 70
     0
  9
$PEXTMIN
 10
1.0000000000E+20
 20
1.0000000000E+20
 30
1.0000000000E+20
  9
$PEXTMAX
 10
-1.0000000000E+20
 20
-1.0000000000E+20
 30
-1.0000000000E+20
  9
$PLIMMIN
 10
0.0
 20
0.0
  9
$PLIMMAX
 10
420.0
 20
297.0
  9
$UNITMODE
 70
     0
  9
$VISRETAIN
 70
     1
  9
$PLINEGEN
 70
     0
  9
$PSLTSCALE
 70
     1
  9
$TREEDEPTH
 70
  3020
  9
$CMLSTYLE
  2
Standard
  9
$CMLJUST
 70
     0
  9
$CMLSCALE
 40
20.0
  9
$PROXYGRAPHICS
 70
     1
  9
$MEASUREMENT
 70
     1
  9
$CELWEIGHT
370
    -1
  9
$ENDCAPS
280
     0
  9
$JOINSTYLE
280
     0
  9
$LWDISPLAY
290
     1
  9
$INSUNITS
 70
     4
  9
$HYPERLINKBASE
  1

  9
$STYLESHEET
  1

  9
$XEDIT
290
     1
  9
$CEPSNTYPE
380
     0
  9
$PSTYLEMODE
290
     1
  9
$FINGERPRINTGUID
  2
{3971D7F5-19B1-467A-92F3-73DEC4772D55}
  9
$VERSIONGUID
  2
{FAEB1C32-E019-11D5-929B-00C0DF256EC4}
  9
$EXTNAMES
290
     1
  9
$PSVPSCALE
 40
0.0
  9
$OLESTARTUP
290
     0
  0
ENDSEC
  0
SECTION
  2
CLASSES
  0
CLASS
  1
ACDBDICTIONARYWDFLT
  2
AcDbDictionaryWithDefault
  3
ObjectDBX Classes
 90
        0
280
     0
281
     0
  0
CLASS
  1
VISUALSTYLE
  2
AcDbVisualStyle
  3
ObjectDBX Classes
 90
     4095
280
     0
281
     0
  0
CLASS
  1
MATERIAL
  2
AcDbMaterial
  3
ObjectDBX Classes
 90
     1153
280
     0
281
     0
  0
CLASS
  1
SCALE
  2
AcDbScale
  3
ObjectDBX Classes
 90
     1153
280
     0
281
     0
  0
CLASS
  1
TABLESTYLE
  2
AcDbTableStyle
  3
ObjectDBX Classes
 90
     4095
280
     0
281
     0
  0
CLASS
  1
MLEADERSTYLE
  2
AcDbMLeaderStyle
  3
ACDB_MLEADERSTYLE_CLASS
 90
     4095
280
     0
281
     0
  0
CLASS
  1
SUN
  2
AcDbSun
  3
SCENEOE
 90
     1153
280
     0
281
     0
  0
CLASS
  1
ACDBPLACEHOLDER
  2
AcDbPlaceHolder
  3
ObjectDBX Classes
 90
        0
280
     0
281
     0
  0
CLASS
  1
LAYOUT
  2
AcDbLayout
  3
ObjectDBX Classes
 90
        0
280
     0
281
     0
  0
ENDSEC
  0
SECTION
  2
TABLES
  0
TABLE
  2
VPORT
  5
8
330
0
100
AcDbSymbolTable
 70
     1
  0
VPORT
  5
29
330
8
100
AcDbSymbolTableRecord
100
AcDbViewportTableRecord
  2
*Active
 70
     0
 10
0.0
 20
0.0
 11
1.0
 21
1.0
 12
420.5
 22
297.0
 13
0.0
 23
0.0
 14
10.0
 24
10.0
 15
10.0
 25
10.0
 16
0.0
 26
0.0
 36
1.0
 17
0.0
 27
0.0
 37
0.0
 40
594.0
 41
1.4158249158
 42
50.0
 43
0.0
 44
0.0
 50
0.0
 51
0.0
 71
     0
 72
  2000
 73
     1
 74
     3
 75
     0
 76
     0
 77
     0
 78
     0
281
     0
 65
     1
110
0.0
120
0.0
130
0.0
111
1.0
121
0.0
131
0.0
112
0.0
122
1.0
132
0.0
 79
     0
146
0.0
  0
ENDTAB
  0
TABLE
  2
LTYPE
  5
5
330
0
100
AcDbSymbolTable
 70
     6
  0
LTYPE
  5
14
330
5
100
AcDbSymbolTableRecord
100
AcDbLinetypeTableRecord
  2
ByBlock
 70
     0
  3

 72
    65
 73
     0
 40
0.0
  0
LTYPE
  5
15
330
5
100
AcDbSymbolTableRecord
100
AcDbLinetypeTableRecord
  2
ByLayer
 70
     0
  3

 72
    65
 73
     0
 40
0.0
  0
LTYPE
  5
16
330
5
100
AcDbSymbolTableRecord
100
AcDbLinetypeTableRecord
  2
Continuous
 70
     0
  3
Solid line
 72
    65
 73
     0
 40
0.0
  0
LTYPE
  5
6E
330
5
100
AcDbSymbolTableRecord
100
AcDbLinetypeTableRecord
  2
HIDDEN
 70
     0
  3
Hidden __ __ __ __ __ __ __ __ __ __ __ __ __ __
 72
    65
 73
     2
 40
1.905
 49
1.27
 74
     0
 49
-0.635
 74
     0
  0
LTYPE
  5
6F
330
5
100
AcDbSymbolTableRecord
100
AcDbLinetypeTableRecord
  2
PHANTOM
 70
     0
  3
Phantom ______  __  __  ______  __  __  ______
 72
    65
 73
     6
 40
12.7
 49
6.35
 74
     0
 49
-1.27
 74
     0
 49
1.27
 74
     0
 49
-1.27
 74
     0
 49
1.27
 74
     0
 49
-1.27
 74
     0
  0
LTYPE
  5
70
330
5
100
AcDbSymbolTableRecord
100
AcDbLinetypeTableRecord
  2
CENTER
 70
     0
  3
Center ____ _ ____ _ ____ _ ____ _ ____ _ ____
 72
    65
 73
     4
 40
10.16
 49
6.35
 74
     0
 49
-1.27
 74
     0
 49
1.27
 74
     0
 49
-1.27
 74
     0
  0
LTYPE
  5
71
330
5
100
AcDbSymbolTableRecord
100
AcDbLinetypeTableRecord
  2
CENTERX2
 70
     0
  3
Center (2x) ________  __  ________  __  _____
 72
    65
 73
     4
 40
20.32
 49
12.7
 74
     0
 49
-2.54
 74
     0
 49
2.54
 74
     0
 49
-2.54
 74
     0
  0
LTYPE
  5
72
330
5
100
AcDbSymbolTableRecord
100
AcDbLinetypeTableRecord
  2
DOT2
 70
     0
  3
Dot (.5x) ........................................
 72
    65
 73
     2
 40
0.635
 49
0.0
 74
     0
 49
-0.635
 74
     0
  0
ENDTAB
  0
TABLE
  2
LAYER
  5
2
330
0
100
AcDbSymbolTable
 70
     1
  0
LAYER
  5
10
330
2
100
AcDbSymbolTableRecord
100
AcDbLayerTableRecord
  2
0
 70
     0
 62
     7
  6
Continuous
370
    -3
390
F
  0
ENDTAB
  0
TABLE
  2
STYLE
  5
3
330
0
100
AcDbSymbolTable
 70
     5
  0
STYLE
  5
11
330
3
100
AcDbSymbolTableRecord
100
AcDbTextStyleTableRecord
  2
Standard
 70
     0
 40
0.0
 41
1.0
 50
0.0
 71
     0
 42
3.0
  3
txt
  4

  0
STYLE
  5
DD
330
3
100
AcDbSymbolTableRecord
100
AcDbTextStyleTableRecord
  2
SLDTEXTSTYLE0
 70
     0
 40
0.0
 41
0.5316086498
 50
0.0
 71
     0
 42
3.0
  3
TXT
  4

  0
STYLE
  5
DF
330
3
100
AcDbSymbolTableRecord
100
AcDbTextStyleTableRecord
  2
SLDTEXTSTYLE1
 70
     0
 40
0.0
 41
0.8435443038
 50
0.0
 71
     0
 42
3.0
  3
ISOCP
  4

  0
STYLE
  5
11D
330
3
100
AcDbSymbolTableRecord
100
AcDbTextStyleTableRecord
  2
SLDTEXTSTYLE2
 70
     0
 40
0.0
 41
0.96
 50
0.0
 71
     0
 42
3.0
  3
ISOCP
  4

  0
STYLE
  5
133
330
3
100
AcDbSymbolTableRecord
100
AcDbTextStyleTableRecord
  2
SLDTEXTSTYLE3
 70
     0
 40
0.0
 41
1.0126582278
 50
0.0
 71
     0
 42
3.0
  3
ISOCP
  4

  0
ENDTAB
  0
TABLE
  2
VIEW
  5
6
330
0
100
AcDbSymbolTable
 70
     0
  0
ENDTAB
  0
TABLE
  2
UCS
  5
7
330
0
100
AcDbSymbolTable
 70
     0
  0
ENDTAB
  0
TABLE
  2
APPID
  5
9
330
0
100
AcDbSymbolTable
 70
     1
  0
APPID
  5
12
330
9
100
AcDbSymbolTableRecord
100
AcDbRegAppTableRecord
  2
ACAD
 70
     0
  0
ENDTAB
  0
TABLE
  2
DIMSTYLE
  5
A
330
0
100
AcDbSymbolTable
 70
     1
100
AcDbDimStyleTable
  0
DIMSTYLE
105
27
330
A
100
AcDbSymbolTableRecord
100
AcDbDimStyleTableRecord
  2
ISO-25
 70
     0
 41
2.5
 42
0.625
 43
3.75
 44
1.25
 73
     0
 74
     0
 77
     1
 78
     8
140
2.5
141
2.5
143
0.0393700787
147
0.625
171
     3
172
     1
178
     0
271
     2
272
     2
274
     3
278
    44
283
     0
284
     8
340
11
  0
ENDTAB
  0
TABLE
  2
BLOCK_RECORD
  5
1
330
0
100
AcDbSymbolTable
 70
     4
  0
BLOCK_RECORD
  5
1F
330
1
100
AcDbSymbolTableRecord
100
AcDbBlockTableRecord
  2
*Model_Space
340
22
  0
BLOCK_RECORD
  5
1B
330
1
100
AcDbSymbolTableRecord
100
AcDbBlockTableRecord
  2
*Paper_Space
340
1E
  0
BLOCK_RECORD
  5
23
330
1
100
AcDbSymbolTableRecord
100
AcDbBlockTableRecord
  2
*Paper_Space0
340
26
  0
BLOCK_RECORD
  5
73
330
1
100
AcDbSymbolTableRecord
100
AcDbBlockTableRecord
  2
A1H
340
0
  0
BLOCK_RECORD
  5
11A
330
1
100
AcDbSymbolTableRecord
100
AcDbBlockTableRecord
  2
Nota legale
340
0
  0
BLOCK_RECORD
  5
11F
330
1
100
AcDbSymbolTableRecord
100
AcDbBlockTableRecord
  2
ISO2768
340
0
  0
ENDTAB
  0
ENDSEC
  0
SECTION
  2
BLOCKS
  0
BLOCK
  5
20
330
1F
100
AcDbEntity
  8
0
100
AcDbBlockBegin
  2
*Model_Space
 70
     0
 10
0.0
 20
0.0
 30
0.0
  3
*Model_Space
  1

  0
ENDBLK
  5
21
330
1F
100
AcDbEntity
  8
0
100
AcDbBlockEnd
  0
BLOCK
  5
1C
330
1B
100
AcDbEntity
 67
     1
  8
0
100
AcDbBlockBegin
  2
*Paper_Space
 70
     0
 10
0.0
 20
0.0
 30
0.0
  3
*Paper_Space
  1

  0
ENDBLK
  5
1D
330
1B
100
AcDbEntity
 67
     1
  8
0
100
AcDbBlockEnd
  0
BLOCK
  5
24
330
23
100
AcDbEntity
  8
0
100
AcDbBlockBegin
  2
*Paper_Space0
 70
     0
 10
0.0
 20
0.0
 30
0.0
  3
*Paper_Space0
  1

  0
ENDBLK
  5
25
330
23
100
AcDbEntity
  8
0
100
AcDbBlockEnd
  0
BLOCK
  5
74
330
73
100
AcDbEntity
  8
0
100
AcDbBlockBegin
  2
A1H
 70
     0
 10
0.0
 20
0.0
 30
0.0
  3
A1H
  1

  0
LINE
  5
76
330
73
100
AcDbEntity
  8
0
  6
Continuous
 62
     7
370
     0
100
AcDbLine
 10
831.000000015
 20
297.0000020355
 30
0.0
 11
836.0
 21
294.8865984457
 31
0.0
  0
LINE
  5
77
330
73
100
AcDbEntity
  8
0
  6
Continuous
 62
     7
370
     0
100
AcDbLine
 10
831.000000015
 20
297.0000020355
 30
0.0
 11
836.0
 21
299.1134051111
 31
0.0
  0
LINE
  5
78
330
73
100
AcDbEntity
  8
0
  6
Continuous
 62
     7
370
     0
100
AcDbLine
 10
678.9375
 20
10.0
 30
0.0
 11
678.9375
 21
4.9999966063
 31
0.0
  0
LINE
  5
79
330
73
100
AcDbEntity
  8
0
  6
Continuous
 62
     7
370
     0
100
AcDbLine
 10
628.25
 20
10.0
 30
0.0
 11
628.25
 21
4.9999966063
 31
0.0
  0
LINE
  5
7A
330
73
100
AcDbEntity
  8
0
  6
Continuous
 62
     7
370
     0
100
AcDbLine
 10
577.5625
 20
10.0
 30
0.0
 11
577.5625
 21
4.9999966063
 31
0.0
  0
LINE
  5
7B
330
73
100
AcDbEntity
  8
0
  6
Continuous
 62
     7
370
     0
100
AcDbLine
 10
526.875
 20
10.0
 30
0.0
 11
526.875
 21
4.9999966063
 31
0.0
  0
LINE
  5
7C
330
73
100
AcDbEntity
  8
0
  6
Continuous
 62
     7
370
     0
100
AcDbLine
 10
476.1875
 20
10.0
 30
0.0
 11
476.1875
 21
4.9999966063
 31
0.0
  0
LINE
  5
7D
330
73
100
AcDbEntity
  8
0
  6
Continuous
 62
     7
370
     0
100
AcDbLine
 10
425.5
 20
10.0
 30
0.0
 11
425.5
 21
5.0
 31
0.0
  0
LINE
  5
7E
330
73
100
AcDbEntity
  8
0
  6
Continuous
 62
     7
370
     0
100
AcDbLine
 10
374.8125
 20
10.0
 30
0.0
 11
374.8125
 21
4.9999966063
 31
0.0
  0
LINE
  5
7F
330
73
100
AcDbEntity
  8
0
  6
Continuous
 62
     7
370
     0
100
AcDbLine
 10
324.125
 20
10.0
 30
0.0
 11
324.125
 21
4.9999966063
 31
0.0
  0
LINE
  5
80
330
73
100
AcDbEntity
  8
0
  6
Continuous
 62
     7
370
     0
100
AcDbLine
 10
273.4375
 20
10.0
 30
0.0
 11
273.4375
 21
4.9999966063
 31
0.0
  0
LINE
  5
81
330
73
100
AcDbEntity
  8
0
  6
Continuous
 62
     7
370
     0
100
AcDbLine
 10
222.75
 20
10.0
 30
0.0
 11
222.75
 21
4.9999966063
 31
0.0
  0
LINE
  5
82
330
73
100
AcDbEntity
  8
0
  6
Continuous
 62
     7
370
     0
100
AcDbLine
 10
172.0625
 20
10.0
 30
0.0
 11
172.0625
 21
4.9999966063
 31
0.0
  0
LINE
  5
83
330
73
100
AcDbEntity
  8
0
  6
Continuous
 62
     7
370
     0
100
AcDbLine
 10
121.375
 20
10.0
 30
0.0
 11
121.375
 21
4.9999966063
 31
0.0
  0
LINE
  5
84
330
73
100
AcDbEntity
  8
0
  6
Continuous
 62
     7
370
     0
100
AcDbLine
 10
70.6875
 20
10.0
 30
0.0
 11
70.6875
 21
4.9999966063
 31
0.0
  0
LINE
  5
85
330
73
100
AcDbEntity
  8
0
  6
Continuous
 62
     7
370
     0
100
AcDbLine
 10
831.0
 20
589.0
 30
0.0
 11
831.0
 21
583.9999966063
 31
0.0
  0
LINE
  5
86
330
73
100
AcDbEntity
  8
0
  6
Continuous
 62
     7
370
     0
100
AcDbLine
 10
780.3125
 20
589.0
 30
0.0
 11
780.3125
 21
583.9999966063
 31
0.0
  0
LINE
  5
87
330
73
100
AcDbEntity
  8
0
  6
Continuous
 62
     7
370
     0
100
AcDbLine
 10
729.625
 20
589.0
 30
0.0
 11
729.625
 21
583.9999966063
 31
0.0
  0
LINE
  5
88
330
73
100
AcDbEntity
  8
0
  6
Continuous
 62
     7
370
     0
100
AcDbLine
 10
678.9375
 20
589.0
 30
0.0
 11
678.9375
 21
583.9999966063
 31
0.0
  0
LINE
  5
89
330
73
100
AcDbEntity
  8
0
  6
Continuous
 62
     7
370
     0
100
AcDbLine
 10
628.25
 20
589.0
 30
0.0
 11
628.25
 21
583.9999966063
 31
0.0
  0
LINE
  5
8A
330
73
100
AcDbEntity
  8
0
  6
Continuous
 62
     7
370
     0
100
AcDbLine
 10
577.5625
 20
589.0
 30
0.0
 11
577.5625
 21
583.9999966063
 31
0.0
  0
LINE
  5
8B
330
73
100
AcDbEntity
  8
0
  6
Continuous
 62
     7
370
     0
100
AcDbLine
 10
526.875
 20
589.0
 30
0.0
 11
526.875
 21
583.9999966063
 31
0.0
  0
LINE
  5
8C
330
73
100
AcDbEntity
  8
0
  6
Continuous
 62
     7
370
     0
100
AcDbLine
 10
476.1875
 20
589.0
 30
0.0
 11
476.1875
 21
583.9999966063
 31
0.0
  0
LINE
  5
8D
330
73
100
AcDbEntity
  8
0
  6
Continuous
 62
     7
370
     0
100
AcDbLine
 10
425.5
 20
589.0
 30
0.0
 11
425.5
 21
583.9999966063
 31
0.0
  0
LINE
  5
8E
330
73
100
AcDbEntity
  8
0
  6
Continuous
 62
     7
370
     0
100
AcDbLine
 10
374.8125
 20
589.0
 30
0.0
 11
374.8125
 21
583.9999966063
 31
0.0
  0
LINE
  5
8F
330
73
100
AcDbEntity
  8
0
  6
Continuous
 62
     7
370
     0
100
AcDbLine
 10
324.125
 20
589.0
 30
0.0
 11
324.125
 21
583.9999966063
 31
0.0
  0
LINE
  5
90
330
73
100
AcDbEntity
  8
0
  6
Continuous
 62
     7
370
     0
100
AcDbLine
 10
273.4375
 20
589.0
 30
0.0
 11
273.4375
 21
583.9999966063
 31
0.0
  0
LINE
  5
91
330
73
100
AcDbEntity
  8
0
  6
Continuous
 62
     7
370
     0
100
AcDbLine
 10
222.75
 20
589.0
 30
0.0
 11
222.75
 21
583.9999966063
 31
0.0
  0
LINE
  5
92
330
73
100
AcDbEntity
  8
0
  6
Continuous
 62
     7
370
     0
100
AcDbLine
 10
172.0625
 20
589.0
 30
0.0
 11
172.0625
 21
583.9999966063
 31
0.0
  0
LINE
  5
93
330
73
100
AcDbEntity
  8
0
  6
Continuous
 62
     7
370
     0
100
AcDbLine
 10
121.375
 20
589.0
 30
0.0
 11
121.375
 21
583.9999966063
 31
0.0
  0
LINE
  5
94
330
73
100
AcDbEntity
  8
0
  6
Continuous
 62
     7
370
     0
100
AcDbLine
 10
70.6875
 20
589.0
 30
0.0
 11
70.6875
 21
583.9999966063
 31
0.0
  0
LINE
  5
95
330
73
100
AcDbEntity
  8
0
  6
Continuous
 62
     7
370
     0
100
AcDbLine
 10
211.0
 20
589.0
 30
0.0
 11
211.0
 21
583.9999966063
 31
0.0
  0
LINE
  5
96
330
73
100
AcDbEntity
  8
0
  6
Continuous
 62
     7
370
     0
100
AcDbLine
 10
286.0
 20
583.9999966063
 30
0.0
 11
288.1134033203
 21
589.0
 31
0.0
  0
LINE
  5
97
330
73
100
AcDbEntity
  8
0
  6
Continuous
 62
     7
370
     0
100
AcDbLine
 10
286.0
 20
583.9999966063
 30
0.0
 11
283.8865966797
 21
589.0
 31
0.0
  0
LINE
  5
98
330
73
100
AcDbEntity
  8
0
  6
Continuous
 62
     7
370
     0
100
AcDbLine
 10
340.5
 20
583.9999966063
 30
0.0
 11
342.6134033203
 21
589.0
 31
0.0
  0
LINE
  5
99
330
73
100
AcDbEntity
  8
0
  6
Continuous
 62
     7
370
     0
100
AcDbLine
 10
340.5
 20
583.9999966063
 30
0.0
 11
338.3865966797
 21
589.0
 31
0.0
  0
LINE
  5
9A
330
73
100
AcDbEntity
  8
0
  6
Continuous
 62
     7
370
     0
100
AcDbLine
 10
421.0
 20
589.0
 30
0.0
 11
421.0
 21
583.9999966063
 31
0.0
  0
LINE
  5
9B
330
73
100
AcDbEntity
  8
0
  6
Continuous
 62
     7
370
     0
100
AcDbLine
 10
631.0
 20
589.0
 30
0.0
 11
631.0
 21
583.9999966063
 31
0.0
  0
LINE
  5
9C
330
73
100
AcDbEntity
  8
0
  6
Continuous
 62
     7
370
     0
100
AcDbLine
 10
656.0
 20
583.9999966063
 30
0.0
 11
658.1134033203
 21
589.0
 31
0.0
  0
LINE
  5
9D
330
73
100
AcDbEntity
  8
0
  6
Continuous
 62
     7
370
     0
100
AcDbLine
 10
656.0
 20
583.9999966063
 30
0.0
 11
653.8865966797
 21
589.0
 31
0.0
  0
LINE
  5
9E
330
73
100
AcDbEntity
  8
0
  6
Continuous
 62
     7
370
     0
100
AcDbLine
 10
211.0
 20
4.9999966063
 30
0.0
 11
211.0
 21
10.0
 31
0.0
  0
LINE
  5
9F
330
73
100
AcDbEntity
  8
0
  6
Continuous
 62
     7
370
     0
100
AcDbLine
 10
285.9999985656
 20
10.0
 30
0.0
 11
288.1134023207
 21
4.9999966063
 31
0.0
  0
LINE
  5
A0
330
73
100
AcDbEntity
  8
0
  6
Continuous
 62
     7
370
     0
100
AcDbLine
 10
285.9999985656
 20
10.0
 30
0.0
 11
283.8865968971
 21
4.9999966063
 31
0.0
  0
LINE
  5
A1
330
73
100
AcDbEntity
  8
0
  6
Continuous
 62
     7
370
     0
100
AcDbLine
 10
340.5
 20
10.0
 30
0.0
 11
342.6134033203
 21
4.9999966063
 31
0.0
  0
LINE
  5
A2
330
73
100
AcDbEntity
  8
0
  6
Continuous
 62
     7
370
     0
100
AcDbLine
 10
340.5
 20
10.0
 30
0.0
 11
338.3865966797
 21
4.9999966063
 31
0.0
  0
LINE
  5
A3
330
73
100
AcDbEntity
  8
0
  6
Continuous
 62
     7
370
     0
100
AcDbLine
 10
421.0
 20
4.9999966063
 30
0.0
 11
421.0
 21
10.0
 31
0.0
  0
LINE
  5
A4
330
73
100
AcDbEntity
  8
0
  6
Continuous
 62
     7
370
     0
100
AcDbLine
 10
631.0
 20
4.9999966063
 30
0.0
 11
631.0
 21
10.0
 31
0.0
  0
LINE
  5
A5
330
73
100
AcDbEntity
  8
0
  6
Continuous
 62
     7
370
     0
100
AcDbLine
 10
656.0
 20
10.0
 30
0.0
 11
658.1134033203
 21
4.9999966063
 31
0.0
  0
LINE
  5
A6
330
73
100
AcDbEntity
  8
0
  6
Continuous
 62
     7
370
     0
100
AcDbLine
 10
656.0
 20
10.0
 30
0.0
 11
653.8865966797
 21
4.9999966063
 31
0.0
  0
LINE
  5
A7
330
73
100
AcDbEntity
  8
0
  6
Continuous
 62
     7
370
     0
100
AcDbLine
 10
836.0
 20
57.833337
 30
0.0
 11
831.0
 21
57.833337
 31
0.0
  0
LINE
  5
A8
330
73
100
AcDbEntity
  8
0
  6
Continuous
 62
     7
370
     0
100
AcDbLine
 10
836.0
 20
105.66667
 30
0.0
 11
831.0
 21
105.66667
 31
0.0
  0
LINE
  5
A9
330
73
100
AcDbEntity
  8
0
  6
Continuous
 62
     7
370
     0
100
AcDbLine
 10
836.0
 20
153.500003
 30
0.0
 11
831.0
 21
153.500003
 31
0.0
  0
LINE
  5
AA
330
73
100
AcDbEntity
  8
0
  6
Continuous
 62
     7
370
     0
100
AcDbLine
 10
836.0
 20
201.333336
 30
0.0
 11
831.0
 21
201.333336
 31
0.0
  0
LINE
  5
AB
330
73
100
AcDbEntity
  8
0
  6
Continuous
 62
     7
370
     0
100
AcDbLine
 10
836.0
 20
249.166669
 30
0.0
 11
831.0
 21
249.166669
 31
0.0
  0
LINE
  5
AC
330
73
100
AcDbEntity
  8
0
  6
Continuous
 62
     7
370
     0
100
AcDbLine
 10
836.0
 20
296.9999983032
 30
0.0
 11
831.000000015
 21
297.0000020355
 31
0.0
  0
LINE
  5
AD
330
73
100
AcDbEntity
  8
0
  6
Continuous
 62
     7
370
     0
100
AcDbLine
 10
836.0
 20
344.833335
 30
0.0
 11
831.0
 21
344.833335
 31
0.0
  0
LINE
  5
AE
330
73
100
AcDbEntity
  8
0
  6
Continuous
 62
     7
370
     0
100
AcDbLine
 10
836.0
 20
392.666668
 30
0.0
 11
831.0
 21
392.666668
 31
0.0
  0
LINE
  5
AF
330
73
100
AcDbEntity
  8
0
  6
Continuous
 62
     7
370
     0
100
AcDbLine
 10
836.0
 20
440.500001
 30
0.0
 11
831.0
 21
440.500001
 31
0.0
  0
LINE
  5
B0
330
73
100
AcDbEntity
  8
0
  6
Continuous
 62
     7
370
     0
100
AcDbLine
 10
836.0
 20
488.333334
 30
0.0
 11
831.0
 21
488.333334
 31
0.0
  0
LINE
  5
B1
330
73
100
AcDbEntity
  8
0
  6
Continuous
 62
     7
370
     0
100
AcDbLine
 10
836.0
 20
536.166667
 30
0.0
 11
831.0
 21
536.166667
 31
0.0
  0
LINE
  5
B2
330
73
100
AcDbEntity
  8
0
  6
Continuous
 62
     7
370
     0
100
AcDbLine
 10
20.0000033937
 20
10.0
 30
0.0
 11
15.0
 21
10.0
 31
0.0
  0
LINE
  5
B3
330
73
100
AcDbEntity
  8
0
  6
Continuous
 62
     7
370
     0
100
AcDbLine
 10
20.0000033937
 20
57.833337
 30
0.0
 11
15.0
 21
57.833337
 31
0.0
  0
LINE
  5
B4
330
73
100
AcDbEntity
  8
0
  6
Continuous
 62
     7
370
     0
100
AcDbLine
 10
20.0000033937
 20
105.66667
 30
0.0
 11
15.0
 21
105.66667
 31
0.0
  0
LINE
  5
B5
330
73
100
AcDbEntity
  8
0
  6
Continuous
 62
     7
370
     0
100
AcDbLine
 10
20.0000033937
 20
153.500003
 30
0.0
 11
15.0
 21
153.500003
 31
0.0
  0
LINE
  5
B6
330
73
100
AcDbEntity
  8
0
  6
Continuous
 62
     7
370
     0
100
AcDbLine
 10
20.0000033937
 20
201.333336
 30
0.0
 11
15.0
 21
201.333336
 31
0.0
  0
LINE
  5
B7
330
73
100
AcDbEntity
  8
0
  6
Continuous
 62
     7
370
     0
100
AcDbLine
 10
20.0000033937
 20
249.166669
 30
0.0
 11
15.0
 21
249.166669
 31
0.0
  0
LINE
  5
B8
330
73
100
AcDbEntity
  8
0
  6
Continuous
 62
     7
370
     0
100
AcDbLine
 10
20.0000033937
 20
297.000002
 30
0.0
 11
15.0
 21
297.000002
 31
0.0
  0
LINE
  5
B9
330
73
100
AcDbEntity
  8
0
  6
Continuous
 62
     7
370
     0
100
AcDbLine
 10
20.0000033937
 20
344.833335
 30
0.0
 11
15.0
 21
344.833335
 31
0.0
  0
LINE
  5
BA
330
73
100
AcDbEntity
  8
0
  6
Continuous
 62
     7
370
     0
100
AcDbLine
 10
20.0000033937
 20
392.666668
 30
0.0
 11
15.0
 21
392.666668
 31
0.0
  0
LINE
  5
BB
330
73
100
AcDbEntity
  8
0
  6
Continuous
 62
     7
370
     0
100
AcDbLine
 10
20.0000033937
 20
440.500001
 30
0.0
 11
15.0
 21
440.500001
 31
0.0
  0
LINE
  5
BC
330
73
100
AcDbEntity
  8
0
  6
Continuous
 62
     7
370
     0
100
AcDbLine
 10
20.0000033937
 20
488.333334
 30
0.0
 11
15.0
 21
488.333334
 31
0.0
  0
LINE
  5
BD
330
73
100
AcDbEntity
  8
0
  6
Continuous
 62
     7
370
     0
100
AcDbLine
 10
831.0
 20
589.0
 30
0.0
 11
831.0
 21
583.9999966063
 31
0.0
  0
LINE
  5
BE
330
73
100
AcDbEntity
  8
0
  6
Continuous
 62
     7
370
     0
100
AcDbLine
 10
20.0000033937
 20
536.166667
 30
0.0
 11
15.0
 21
536.166667
 31
0.0
  0
LINE
  5
BF
330
73
100
AcDbEntity
  8
0
  6
Continuous
 62
     7
370
     0
100
AcDbLine
 10
821.0
 20
10.0
 30
0.0
 11
821.0
 21
4.9999966063
 31
0.0
  0
LINE
  5
C0
330
73
100
AcDbEntity
  8
0
  6
Continuous
 62
     7
370
     0
100
AcDbLine
 10
811.0
 20
10.0
 30
0.0
 11
811.0
 21
4.9999966063
 31
0.0
  0
LINE
  5
C1
330
73
100
AcDbEntity
  8
0
  6
Continuous
 62
     7
370
     0
100
AcDbLine
 10
801.0
 20
10.0
 30
0.0
 11
801.0
 21
4.9999966063
 31
0.0
  0
LINE
  5
C2
330
73
100
AcDbEntity
  8
0
  6
Continuous
 62
     7
370
     0
100
AcDbLine
 10
791.0
 20
10.0
 30
0.0
 11
791.0
 21
4.9999966063
 31
0.0
  0
LINE
  5
C3
330
73
100
AcDbEntity
  8
0
  6
Continuous
 62
     7
370
     0
100
AcDbLine
 10
781.0
 20
10.0
 30
0.0
 11
781.0
 21
4.9999966063
 31
0.0
  0
LINE
  5
C4
330
73
100
AcDbEntity
  8
0
  6
Continuous
 62
     7
370
     0
100
AcDbLine
 10
771.0
 20
10.0
 30
0.0
 11
771.0
 21
4.9999966063
 31
0.0
  0
LINE
  5
C5
330
73
100
AcDbEntity
  8
0
  6
Continuous
 62
     7
370
     0
100
AcDbLine
 10
761.0
 20
10.0
 30
0.0
 11
761.0
 21
4.9999966063
 31
0.0
  0
LINE
  5
C6
330
73
100
AcDbEntity
  8
0
  6
Continuous
 62
     7
370
     0
100
AcDbLine
 10
751.0
 20
10.0
 30
0.0
 11
751.0
 21
4.9999966063
 31
0.0
  0
LINE
  5
C7
330
73
100
AcDbEntity
  8
0
  6
Continuous
 62
     7
370
     0
100
AcDbLine
 10
741.0
 20
10.0
 30
0.0
 11
741.0
 21
4.9999966063
 31
0.0
  0
LINE
  5
C8
330
73
100
AcDbEntity
  8
0
  6
Continuous
 62
     7
370
     0
100
AcDbLine
 10
731.0
 20
10.0
 30
0.0
 11
731.0
 21
4.9999966063
 31
0.0
  0
LINE
  5
C9
330
73
100
AcDbEntity
  8
0
  6
Continuous
 62
     7
370
     0
100
AcDbLine
 10
15.0
 20
4.9999966063
 30
0.0
 11
15.0
 21
589.0
 31
0.0
  0
LINE
  5
CA
330
73
100
AcDbEntity
  8
0
  6
Continuous
 62
     7
370
     0
100
AcDbLine
 10
836.0
 20
4.9999966063
 30
0.0
 11
15.0
 21
4.9999966063
 31
0.0
  0
LINE
  5
CB
330
73
100
AcDbEntity
  8
0
  6
Continuous
 62
     7
370
     0
100
AcDbLine
 10
836.0
 20
4.9999966063
 30
0.0
 11
836.0
 21
589.0
 31
0.0
  0
LINE
  5
CC
330
73
100
AcDbEntity
  8
0
  6
Continuous
 62
     7
370
     0
100
AcDbLine
 10
15.0
 20
589.0
 30
0.0
 11
836.0
 21
589.0
 31
0.0
  0
LINE
  5
CD
330
73
100
AcDbEntity
  8
0
  6
Continuous
 62
     7
370
     0
100
AcDbLine
 10
20.0000033937
 20
583.9999966063
 30
0.0
 11
20.0000033937
 21
589.0
 31
0.0
  0
LINE
  5
CE
330
73
100
AcDbEntity
  8
0
  6
Continuous
 62
     7
370
     0
100
AcDbLine
 10
20.0000033937
 20
10.0
 30
0.0
 11
20.0000033937
 21
583.9999966063
 31
0.0
  0
LINE
  5
CF
330
73
100
AcDbEntity
  8
0
  6
Continuous
 62
     7
370
     0
100
AcDbLine
 10
20.0000033937
 20
4.9999966063
 30
0.0
 11
20.0000033937
 21
10.0
 31
0.0
  0
LINE
  5
D0
330
73
100
AcDbEntity
  8
0
  6
Continuous
 62
     7
370
     0
100
AcDbLine
 10
831.0
 20
583.9999966063
 30
0.0
 11
831.0
 21
589.0
 31
0.0
  0
LINE
  5
D1
330
73
100
AcDbEntity
  8
0
  6
Continuous
 62
     7
370
     0
100
AcDbLine
 10
831.0
 20
10.0
 30
0.0
 11
831.0
 21
583.9999966063
 31
0.0
  0
LINE
  5
D2
330
73
100
AcDbEntity
  8
0
  6
Continuous
 62
     7
370
     0
100
AcDbLine
 10
831.0
 20
4.9999966063
 30
0.0
 11
831.0
 21
10.0
 31
0.0
  0
LINE
  5
D3
330
73
100
AcDbEntity
  8
0
  6
Continuous
 62
     7
370
     0
100
AcDbLine
 10
20.0000033937
 20
10.0
 30
0.0
 11
15.0
 21
10.0
 31
0.0
  0
LINE
  5
D4
330
73
100
AcDbEntity
  8
0
  6
Continuous
 62
     7
370
     0
100
AcDbLine
 10
831.0
 20
10.0
 30
0.0
 11
20.0000033937
 21
10.0
 31
0.0
  0
LINE
  5
D5
330
73
100
AcDbEntity
  8
0
  6
Continuous
 62
     7
370
     0
100
AcDbLine
 10
836.0
 20
10.0
 30
0.0
 11
831.0
 21
10.0
 31
0.0
  0
LINE
  5
D6
330
73
100
AcDbEntity
  8
0
  6
Continuous
 62
     7
370
     0
100
AcDbLine
 10
831.0
 20
583.9999966063
 30
0.0
 11
836.0
 21
583.9999966063
 31
0.0
  0
LINE
  5
D7
330
73
100
AcDbEntity
  8
0
  6
Continuous
 62
     7
370
     0
100
AcDbLine
 10
20.0000033937
 20
583.9999966063
 30
0.0
 11
831.0
 21
583.9999966063
 31
0.0
  0
LINE
  5
D8
330
73
100
AcDbEntity
  8
0
  6
Continuous
 62
     7
370
     0
100
AcDbLine
 10
15.0
 20
583.9999966063
 30
0.0
 11
20.0000033937
 21
583.9999966063
 31
0.0
  0
LINE
  5
D9
330
73
100
AcDbEntity
  8
0
  6
Continuous
 62
     7
370
     0
100
AcDbLine
 10
0.0
 20
594.0
 30
0.0
 11
0.0
 21
0.0
 31
0.0
  0
LINE
  5
DA
330
73
100
AcDbEntity
  8
0
  6
Continuous
 62
     7
370
     0
100
AcDbLine
 10
0.0
 20
594.0
 30
0.0
 11
841.0
 21
594.0
 31
0.0
  0
LINE
  5
DB
330
73
100
AcDbEntity
  8
0
  6
Continuous
 62
     7
370
     0
100
AcDbLine
 10
841.0
 20
0.0
 30
0.0
 11
841.0
 21
594.0
 31
0.0
  0
LINE
  5
DC
330
73
100
AcDbEntity
  8
0
  6
Continuous
 62
     7
370
     0
100
AcDbLine
 10
841.0
 20
0.0
 30
0.0
 11
0.0
 21
0.0
 31
0.0
  0
MTEXT
  5
DE
330
73
100
AcDbEntity
  8
0
  6
Continuous
 62
     7
370
     0
100
AcDbMText
 10
655.527178913
 20
7.389386302
 30
0.0
 40
1.5
 41
0.0
 71
     1
 72
     1
  1
1
  7
SLDTEXTSTYLE0
 73
     1
 44
1.0
  0
MTEXT
  5
E0
330
73
100
AcDbEntity
  8
0
  6
Continuous
 62
     7
370
     0
100
AcDbMText
 10
702.3899506522
 20
8.6449155598
 30
0.0
 40
3.0
 41
0.0
 71
     1
 72
     1
  1
13
  7
SLDTEXTSTYLE1
 73
     1
 44
1.0
  0
MTEXT
  5
E1
330
73
100
AcDbEntity
  8
0
  6
Continuous
 62
     7
370
     0
100
AcDbMText
 10
832.3587006522
 20
561.2282490598
 30
0.0
 40
3.0
 41
0.0
 71
     1
 72
     1
  1
A
  7
SLDTEXTSTYLE1
 73
     1
 44
1.0
  0
MTEXT
  5
E2
330
73
100
AcDbEntity
  8
0
  6
Continuous
 62
     7
370
     0
100
AcDbMText
 10
832.3587006522
 20
513.3949160598
 30
0.0
 40
3.0
 41
0.0
 71
     1
 72
     1
  1
B
  7
SLDTEXTSTYLE1
 73
     1
 44
1.0
  0
MTEXT
  5
E3
330
73
100
AcDbEntity
  8
0
  6
Continuous
 62
     7
370
     0
100
AcDbMText
 10
832.2934832609
 20
465.5615830598
 30
0.0
 40
3.0
 41
0.0
 71
     1
 72
     1
  1
C
  7
SLDTEXTSTYLE1
 73
     1
 44
1.0
  0
MTEXT
  5
E4
330
73
100
AcDbEntity
  8
0
  6
Continuous
 62
     7
370
     0
100
AcDbMText
 10
832.2934832609
 20
417.7282500598
 30
0.0
 40
3.0
 41
0.0
 71
     1
 72
     1
  1
D
  7
SLDTEXTSTYLE1
 73
     1
 44
1.0
  0
MTEXT
  5
E5
330
73
100
AcDbEntity
  8
0
  6
Continuous
 62
     7
370
     0
100
AcDbMText
 10
832.3587006522
 20
369.8949170598
 30
0.0
 40
3.0
 41
0.0
 71
     1
 72
     1
  1
E
  7
SLDTEXTSTYLE1
 73
     1
 44
1.0
  0
MTEXT
  5
E6
330
73
100
AcDbEntity
  8
0
  6
Continuous
 62
     7
370
     0
100
AcDbMText
 10
832.4565267391
 20
322.0615840598
 30
0.0
 40
3.0
 41
0.0
 71
     1
 72
     1
  1
F
  7
SLDTEXTSTYLE1
 73
     1
 44
1.0
  0
MTEXT
  5
E7
330
73
100
AcDbEntity
  8
0
  6
Continuous
 62
     7
370
     0
100
AcDbMText
 10
832.1956571739
 20
274.2282510598
 30
0.0
 40
3.0
 41
0.0
 71
     1
 72
     1
  1
G
  7
SLDTEXTSTYLE1
 73
     1
 44
1.0
  0
MTEXT
  5
E8
330
73
100
AcDbEntity
  8
0
  6
Continuous
 62
     7
370
     0
100
AcDbMText
 10
832.2934832609
 20
226.3949180598
 30
0.0
 40
3.0
 41
0.0
 71
     1
 72
     1
  1
H
  7
SLDTEXTSTYLE1
 73
     1
 44
1.0
  0
MTEXT
  5
E9
330
73
100
AcDbEntity
  8
0
  6
Continuous
 62
     7
370
     0
100
AcDbMText
 10
833.0434832609
 20
178.5615850598
 30
0.0
 40
3.0
 41
0.0
 71
     1
 72
     1
  1
I
  7
SLDTEXTSTYLE1
 73
     1
 44
1.0
  0
MTEXT
  5
EA
330
73
100
AcDbEntity
  8
0
  6
Continuous
 62
     7
370
     0
100
AcDbMText
 10
832.652178913
 20
130.7282520598
 30
0.0
 40
3.0
 41
0.0
 71
     1
 72
     1
  1
J
  7
SLDTEXTSTYLE1
 73
     1
 44
1.0
  0
MTEXT
  5
EB
330
73
100
AcDbEntity
  8
0
  6
Continuous
 62
     7
370
     0
100
AcDbMText
 10
832.3587006522
 20
82.8949190598
 30
0.0
 40
3.0
 41
0.0
 71
     1
 72
     1
  1
K
  7
SLDTEXTSTYLE1
 73
     1
 44
1.0
  0
MTEXT
  5
EC
330
73
100
AcDbEntity
  8
0
  6
Continuous
 62
     7
370
     0
100
AcDbMText
 10
832.5543528261
 20
39.0877190249
 30
0.0
 40
3.0
 41
0.0
 71
     1
 72
     1
  1
L
  7
SLDTEXTSTYLE1
 73
     1
 44
1.0
  0
MTEXT
  5
ED
330
73
100
AcDbEntity
  8
0
  6
Continuous
 62
     7
370
     0
100
AcDbMText
 10
655.527178913
 20
588.1028068642
 30
0.0
 40
1.5
 41
0.0
 71
     1
 72
     1
  1
1
  7
SLDTEXTSTYLE0
 73
     1
 44
1.0
  0
MTEXT
  5
EE
330
73
100
AcDbEntity
  8
0
  6
Continuous
 62
     7
370
     0
100
AcDbMText
 10
340.027178913
 20
588.1028068642
 30
0.0
 40
1.5
 41
0.0
 71
     1
 72
     1
  1
3
  7
SLDTEXTSTYLE0
 73
     1
 44
1.0
  0
MTEXT
  5
EF
330
73
100
AcDbEntity
  8
0
  6
Continuous
 62
     7
370
     0
100
AcDbMText
 10
285.527178913
 20
588.1028068642
 30
0.0
 40
1.5
 41
0.0
 71
     1
 72
     1
  1
2
  7
SLDTEXTSTYLE0
 73
     1
 44
1.0
  0
MTEXT
  5
F0
330
73
100
AcDbEntity
  8
0
  6
Continuous
 62
     7
370
     0
100
AcDbMText
 10
44.3981028261
 20
587.6449155598
 30
0.0
 40
3.0
 41
0.0
 71
     1
 72
     1
  1
1
  7
SLDTEXTSTYLE1
 73
     1
 44
1.0
  0
MTEXT
  5
F1
330
73
100
AcDbEntity
  8
0
  6
Continuous
 62
     7
370
     0
100
AcDbMText
 10
95.0856028261
 20
587.6449155598
 30
0.0
 40
3.0
 41
0.0
 71
     1
 72
     1
  1
2
  7
SLDTEXTSTYLE1
 73
     1
 44
1.0
  0
MTEXT
  5
F2
330
73
100
AcDbEntity
  8
0
  6
Continuous
 62
     7
370
     0
100
AcDbMText
 10
145.7731028261
 20
587.6449155598
 30
0.0
 40
3.0
 41
0.0
 71
     1
 72
     1
  1
3
  7
SLDTEXTSTYLE1
 73
     1
 44
1.0
  0
MTEXT
  5
F3
330
73
100
AcDbEntity
  8
0
  6
Continuous
 62
     7
370
     0
100
AcDbMText
 10
196.4606028261
 20
587.6449155598
 30
0.0
 40
3.0
 41
0.0
 71
     1
 72
     1
  1
4
  7
SLDTEXTSTYLE1
 73
     1
 44
1.0
  0
MTEXT
  5
F4
330
73
100
AcDbEntity
  8
0
  6
Continuous
 62
     7
370
     0
100
AcDbMText
 10
247.1481028261
 20
587.6449155598
 30
0.0
 40
3.0
 41
0.0
 71
     1
 72
     1
  1
5
  7
SLDTEXTSTYLE1
 73
     1
 44
1.0
  0
MTEXT
  5
F5
330
73
100
AcDbEntity
  8
0
  6
Continuous
 62
     7
370
     0
100
AcDbMText
 10
297.8356028261
 20
587.6449155598
 30
0.0
 40
3.0
 41
0.0
 71
     1
 72
     1
  1
6
  7
SLDTEXTSTYLE1
 73
     1
 44
1.0
  0
MTEXT
  5
F6
330
73
100
AcDbEntity
  8
0
  6
Continuous
 62
     7
370
     0
100
AcDbMText
 10
348.5231028261
 20
587.6449155598
 30
0.0
 40
3.0
 41
0.0
 71
     1
 72
     1
  1
7
  7
SLDTEXTSTYLE1
 73
     1
 44
1.0
  0
MTEXT
  5
F7
330
73
100
AcDbEntity
  8
0
  6
Continuous
 62
     7
370
     0
100
AcDbMText
 10
399.2106028261
 20
587.6449155598
 30
0.0
 40
3.0
 41
0.0
 71
     1
 72
     1
  1
8
  7
SLDTEXTSTYLE1
 73
     1
 44
1.0
  0
MTEXT
  5
F8
330
73
100
AcDbEntity
  8
0
  6
Continuous
 62
     7
370
     0
100
AcDbMText
 10
449.8981028261
 20
587.6449155598
 30
0.0
 40
3.0
 41
0.0
 71
     1
 72
     1
  1
9
  7
SLDTEXTSTYLE1
 73
     1
 44
1.0
  0
MTEXT
  5
F9
330
73
100
AcDbEntity
  8
0
  6
Continuous
 62
     7
370
     0
100
AcDbMText
 10
499.6399506522
 20
587.6449155598
 30
0.0
 40
3.0
 41
0.0
 71
     1
 72
     1
  1
10
  7
SLDTEXTSTYLE1
 73
     1
 44
1.0
  0
MTEXT
  5
FA
330
73
100
AcDbEntity
  8
0
  6
Continuous
 62
     7
370
     0
100
AcDbMText
 10
550.3274506522
 20
587.6449155598
 30
0.0
 40
3.0
 41
0.0
 71
     1
 72
     1
  1
11
  7
SLDTEXTSTYLE1
 73
     1
 44
1.0
  0
MTEXT
  5
FB
330
73
100
AcDbEntity
  8
0
  6
Continuous
 62
     7
370
     0
100
AcDbMText
 10
601.0149506522
 20
587.6449155598
 30
0.0
 40
3.0
 41
0.0
 71
     1
 72
     1
  1
12
  7
SLDTEXTSTYLE1
 73
     1
 44
1.0
  0
MTEXT
  5
FC
330
73
100
AcDbEntity
  8
0
  6
Continuous
 62
     7
370
     0
100
AcDbMText
 10
647.7024506522
 20
587.6449155598
 30
0.0
 40
3.0
 41
0.0
 71
     1
 72
     1
  1
13
  7
SLDTEXTSTYLE1
 73
     1
 44
1.0
  0
MTEXT
  5
FD
330
73
100
AcDbEntity
  8
0
  6
Continuous
 62
     7
370
     0
100
AcDbMText
 10
702.3899506522
 20
587.6449155598
 30
0.0
 40
3.0
 41
0.0
 71
     1
 72
     1
  1
14
  7
SLDTEXTSTYLE1
 73
     1
 44
1.0
  0
MTEXT
  5
FE
330
73
100
AcDbEntity
  8
0
  6
Continuous
 62
     7
370
     0
100
AcDbMText
 10
753.0774506522
 20
587.6449155598
 30
0.0
 40
3.0
 41
0.0
 71
     1
 72
     1
  1
15
  7
SLDTEXTSTYLE1
 73
     1
 44
1.0
  0
MTEXT
  5
FF
330
73
100
AcDbEntity
  8
0
  6
Continuous
 62
     7
370
     0
100
AcDbMText
 10
803.7649506522
 20
587.6449155598
 30
0.0
 40
3.0
 41
0.0
 71
     1
 72
     1
  1
16
  7
SLDTEXTSTYLE1
 73
     1
 44
1.0
  0
MTEXT
  5
100
330
73
100
AcDbEntity
  8
0
  6
Continuous
 62
     7
370
     0
100
AcDbMText
 10
340.027178913
 20
7.389386302
 30
0.0
 40
1.5
 41
0.0
 71
     1
 72
     1
  1
3
  7
SLDTEXTSTYLE0
 73
     1
 44
1.0
  0
MTEXT
  5
101
330
73
100
AcDbEntity
  8
0
  6
Continuous
 62
     7
370
     0
100
AcDbMText
 10
285.527178913
 20
7.389386302
 30
0.0
 40
1.5
 41
0.0
 71
     1
 72
     1
  1
2
  7
SLDTEXTSTYLE0
 73
     1
 44
1.0
  0
MTEXT
  5
102
330
73
100
AcDbEntity
  8
0
  6
Continuous
 62
     7
370
     0
100
AcDbMText
 10
44.3981028261
 20
8.6449155598
 30
0.0
 40
3.0
 41
0.0
 71
     1
 72
     1
  1
1
  7
SLDTEXTSTYLE1
 73
     1
 44
1.0
  0
MTEXT
  5
103
330
73
100
AcDbEntity
  8
0
  6
Continuous
 62
     7
370
     0
100
AcDbMText
 10
95.0856028261
 20
8.6449155598
 30
0.0
 40
3.0
 41
0.0
 71
     1
 72
     1
  1
2
  7
SLDTEXTSTYLE1
 73
     1
 44
1.0
  0
MTEXT
  5
104
330
73
100
AcDbEntity
  8
0
  6
Continuous
 62
     7
370
     0
100
AcDbMText
 10
145.7731028261
 20
8.6449155598
 30
0.0
 40
3.0
 41
0.0
 71
     1
 72
     1
  1
3
  7
SLDTEXTSTYLE1
 73
     1
 44
1.0
  0
MTEXT
  5
105
330
73
100
AcDbEntity
  8
0
  6
Continuous
 62
     7
370
     0
100
AcDbMText
 10
196.4606028261
 20
8.6449155598
 30
0.0
 40
3.0
 41
0.0
 71
     1
 72
     1
  1
4
  7
SLDTEXTSTYLE1
 73
     1
 44
1.0
  0
MTEXT
  5
106
330
73
100
AcDbEntity
  8
0
  6
Continuous
 62
     7
370
     0
100
AcDbMText
 10
247.1481028261
 20
8.6449155598
 30
0.0
 40
3.0
 41
0.0
 71
     1
 72
     1
  1
5
  7
SLDTEXTSTYLE1
 73
     1
 44
1.0
  0
MTEXT
  5
107
330
73
100
AcDbEntity
  8
0
  6
Continuous
 62
     7
370
     0
100
AcDbMText
 10
297.8356028261
 20
8.6449155598
 30
0.0
 40
3.0
 41
0.0
 71
     1
 72
     1
  1
6
  7
SLDTEXTSTYLE1
 73
     1
 44
1.0
  0
MTEXT
  5
108
330
73
100
AcDbEntity
  8
0
  6
Continuous
 62
     7
370
     0
100
AcDbMText
 10
348.5231028261
 20
8.6449155598
 30
0.0
 40
3.0
 41
0.0
 71
     1
 72
     1
  1
7
  7
SLDTEXTSTYLE1
 73
     1
 44
1.0
  0
MTEXT
  5
109
330
73
100
AcDbEntity
  8
0
  6
Continuous
 62
     7
370
     0
100
AcDbMText
 10
399.2106028261
 20
8.6449155598
 30
0.0
 40
3.0
 41
0.0
 71
     1
 72
     1
  1
8
  7
SLDTEXTSTYLE1
 73
     1
 44
1.0
  0
MTEXT
  5
10A
330
73
100
AcDbEntity
  8
0
  6
Continuous
 62
     7
370
     0
100
AcDbMText
 10
449.8981028261
 20
8.6449155598
 30
0.0
 40
3.0
 41
0.0
 71
     1
 72
     1
  1
9
  7
SLDTEXTSTYLE1
 73
     1
 44
1.0
  0
MTEXT
  5
10B
330
73
100
AcDbEntity
  8
0
  6
Continuous
 62
     7
370
     0
100
AcDbMText
 10
499.6399506522
 20
8.6449155598
 30
0.0
 40
3.0
 41
0.0
 71
     1
 72
     1
  1
10
  7
SLDTEXTSTYLE1
 73
     1
 44
1.0
  0
MTEXT
  5
10C
330
73
100
AcDbEntity
  8
0
  6
Continuous
 62
     7
370
     0
100
AcDbMText
 10
550.3274506522
 20
8.6449155598
 30
0.0
 40
3.0
 41
0.0
 71
     1
 72
     1
  1
11
  7
SLDTEXTSTYLE1
 73
     1
 44
1.0
  0
MTEXT
  5
10D
330
73
100
AcDbEntity
  8
0
  6
Continuous
 62
     7
370
     0
100
AcDbMText
 10
601.0149506522
 20
8.6449155598
 30
0.0
 40
3.0
 41
0.0
 71
     1
 72
     1
  1
12
  7
SLDTEXTSTYLE1
 73
     1
 44
1.0
  0
MTEXT
  5
10E
330
73
100
AcDbEntity
  8
0
  6
Continuous
 62
     7
370
     0
100
AcDbMText
 10
16.3587006522
 20
561.2282490598
 30
0.0
 40
3.0
 41
0.0
 71
     1
 72
     1
  1
A
  7
SLDTEXTSTYLE1
 73
     1
 44
1.0
  0
MTEXT
  5
10F
330
73
100
AcDbEntity
  8
0
  6
Continuous
 62
     7
370
     0
100
AcDbMText
 10
16.3587006522
 20
513.3949160598
 30
0.0
 40
3.0
 41
0.0
 71
     1
 72
     1
  1
B
  7
SLDTEXTSTYLE1
 73
     1
 44
1.0
  0
MTEXT
  5
110
330
73
100
AcDbEntity
  8
0
  6
Continuous
 62
     7
370
     0
100
AcDbMText
 10
16.2934832609
 20
465.5615830598
 30
0.0
 40
3.0
 41
0.0
 71
     1
 72
     1
  1
C
  7
SLDTEXTSTYLE1
 73
     1
 44
1.0
  0
MTEXT
  5
111
330
73
100
AcDbEntity
  8
0
  6
Continuous
 62
     7
370
     0
100
AcDbMText
 10
16.2934832609
 20
417.7282500598
 30
0.0
 40
3.0
 41
0.0
 71
     1
 72
     1
  1
D
  7
SLDTEXTSTYLE1
 73
     1
 44
1.0
  0
MTEXT
  5
112
330
73
100
AcDbEntity
  8
0
  6
Continuous
 62
     7
370
     0
100
AcDbMText
 10
16.3587006522
 20
369.8949170598
 30
0.0
 40
3.0
 41
0.0
 71
     1
 72
     1
  1
E
  7
SLDTEXTSTYLE1
 73
     1
 44
1.0
  0
MTEXT
  5
113
330
73
100
AcDbEntity
  8
0
  6
Continuous
 62
     7
370
     0
100
AcDbMText
 10
16.4565267391
 20
322.0615840598
 30
0.0
 40
3.0
 41
0.0
 71
     1
 72
     1
  1
F
  7
SLDTEXTSTYLE1
 73
     1
 44
1.0
  0
MTEXT
  5
114
330
73
100
AcDbEntity
  8
0
  6
Continuous
 62
     7
370
     0
100
AcDbMText
 10
16.1956571739
 20
274.2282510598
 30
0.0
 40
3.0
 41
0.0
 71
     1
 72
     1
  1
G
  7
SLDTEXTSTYLE1
 73
     1
 44
1.0
  0
MTEXT
  5
115
330
73
100
AcDbEntity
  8
0
  6
Continuous
 62
     7
370
     0
100
AcDbMText
 10
16.2934832609
 20
226.3949180598
 30
0.0
 40
3.0
 41
0.0
 71
     1
 72
     1
  1
H
  7
SLDTEXTSTYLE1
 73
     1
 44
1.0
  0
MTEXT
  5
116
330
73
100
AcDbEntity
  8
0
  6
Continuous
 62
     7
370
     0
100
AcDbMText
 10
17.0434832609
 20
178.5615850598
 30
0.0
 40
3.0
 41
0.0
 71
     1
 72
     1
  1
I
  7
SLDTEXTSTYLE1
 73
     1
 44
1.0
  0
MTEXT
  5
117
330
73
100
AcDbEntity
  8
0
  6
Continuous
 62
     7
370
     0
100
AcDbMText
 10
16.652178913
 20
130.7282520598
 30
0.0
 40
3.0
 41
0.0
 71
     1
 72
     1
  1
J
  7
SLDTEXTSTYLE1
 73
     1
 44
1.0
  0
MTEXT
  5
118
330
73
100
AcDbEntity
  8
0
  6
Continuous
 62
     7
370
     0
100
AcDbMText
 10
16.3587006522
 20
82.8949190598
 30
0.0
 40
3.0
 41
0.0
 71
     1
 72
     1
  1
K
  7
SLDTEXTSTYLE1
 73
     1
 44
1.0
  0
MTEXT
  5
119
330
73
100
AcDbEntity
  8
0
  6
Continuous
 62
     7
370
     0
100
AcDbMText
 10
16.5543528261
 20
35.0615860598
 30
0.0
 40
3.0
 41
0.0
 71
     1
 72
     1
  1
L
  7
SLDTEXTSTYLE1
 73
     1
 44
1.0
  0
ENDBLK
  5
75
330
73
100
AcDbEntity
  8
0
100
AcDbBlockEnd
  0
BLOCK
  5
11B
330
11A
100
AcDbEntity
  8
0
100
AcDbBlockBegin
  2
Nota legale
 70
     0
 10
0.0
 20
0.0
 30
0.0
  3
Nota legale
  1

  0
MTEXT
  5
11E
330
11A
100
AcDbEntity
  8
0
  6
Continuous
 62
     7
370
     0
100
AcDbMText
 10
2.8916698098
 20
-1.0663983927
 30
0.0
 40
1.5
 41
0.0
 71
     3
 72
     1
  1
BY TERM LAWS WE RESERVE THE PROPERTY OF THIS DRAWING WITH PROHIBITION OF USE AND REPRODUCTION
  7
SLDTEXTSTYLE2
 73
     1
 44
1.0
  0
ENDBLK
  5
11C
330
11A
100
AcDbEntity
  8
0
100
AcDbBlockEnd
  0
BLOCK
  5
120
330
11F
100
AcDbEntity
  8
0
100
AcDbBlockBegin
  2
ISO2768
 70
     0
 10
0.0
 20
0.0
 30
0.0
  3
ISO2768
  1

  0
LINE
  5
122
330
11F
100
AcDbEntity
  8
0
  6
Continuous
 62
     7
370
     0
100
AcDbLine
 10
-25.0
 20
0.0
 30
0.0
 11
-25.0
 21
-20.0
 31
0.0
  0
LINE
  5
123
330
11F
100
AcDbEntity
  8
0
  6
Continuous
 62
     7
370
     0
100
AcDbLine
 10
-50.0
 20
0.0
 30
0.0
 11
-50.0
 21
-20.0
 31
0.0
  0
LINE
  5
124
330
11F
100
AcDbEntity
  8
0
  6
Continuous
 62
     7
370
     0
100
AcDbLine
 10
-75.0
 20
0.0
 30
0.0
 11
-75.0
 21
-20.0
 31
0.0
  0
LINE
  5
125
330
11F
100
AcDbEntity
  8
0
  6
Continuous
 62
     7
370
     0
100
AcDbLine
 10
-95.0
 20
0.0
 30
0.0
 11
-95.0
 21
-20.0
 31
0.0
  0
LINE
  5
126
330
11F
100
AcDbEntity
  8
0
  6
Continuous
 62
     7
370
     0
100
AcDbLine
 10
-115.0
 20
0.0
 30
0.0
 11
-115.0
 21
-20.0
 31
0.0
  0
LINE
  5
127
330
11F
100
AcDbEntity
  8
0
  6
Continuous
 62
     7
370
     0
100
AcDbLine
 10
-130.0
 20
0.0
 30
0.0
 11
-130.0
 21
-20.0
 31
0.0
  0
LINE
  5
128
330
11F
100
AcDbEntity
  8
0
  6
Continuous
 62
     7
370
     0
100
AcDbLine
 10
-145.0
 20
0.0
 30
0.0
 11
-145.0
 21
-20.0
 31
0.0
  0
LINE
  5
129
330
11F
100
AcDbEntity
  8
0
  6
Continuous
 62
     7
370
     0
100
AcDbLine
 10
-155.0
 20
-4.0
 30
0.0
 11
-155.0
 21
-20.0
 31
0.0
  0
LINE
  5
12A
330
11F
100
AcDbEntity
  8
0
  6
Continuous
 62
     7
370
     0
100
AcDbLine
 10
-175.0
 20
-16.0
 30
0.0
 11
0.0
 21
-16.0
 31
0.0
  0
LINE
  5
12B
330
11F
100
AcDbEntity
  8
0
  6
Continuous
 62
     7
370
     0
100
AcDbLine
 10
-175.0
 20
-12.0
 30
0.0
 11
0.0
 21
-12.0
 31
0.0
  0
LINE
  5
12C
330
11F
100
AcDbEntity
  8
0
  6
Continuous
 62
     7
370
     0
100
AcDbLine
 10
-175.0
 20
-8.0
 30
0.0
 11
0.0
 21
-8.0
 31
0.0
  0
LINE
  5
12D
330
11F
100
AcDbEntity
  8
0
  6
Continuous
 62
     7
370
     0
100
AcDbLine
 10
-175.0
 20
-4.0
 30
0.0
 11
0.0
 21
-4.0
 31
0.0
  0
LINE
  5
12E
330
11F
100
AcDbEntity
  8
0
  6
Continuous
 62
     7
370
     0
100
AcDbLine
 10
-175.0
 20
0.0
 30
0.0
 11
-175.0
 21
-20.0
 31
0.0
  0
LINE
  5
12F
330
11F
100
AcDbEntity
  8
0
  6
Continuous
 62
     7
370
     0
100
AcDbLine
 10
-180.0
 20
-20.0
 30
0.0
 11
-180.0
 21
0.0
 31
0.0
  0
LINE
  5
130
330
11F
100
AcDbEntity
  8
0
  6
Continuous
 62
     7
370
     0
100
AcDbLine
 10
0.0
 20
-20.0
 30
0.0
 11
-180.0
 21
-20.0
 31
0.0
  0
LINE
  5
131
330
11F
100
AcDbEntity
  8
0
  6
Continuous
 62
     7
370
     0
100
AcDbLine
 10
0.0
 20
0.0
 30
0.0
 11
0.0
 21
-20.0
 31
0.0
  0
LINE
  5
132
330
11F
100
AcDbEntity
  8
0
  6
Continuous
 62
     7
370
     0
100
AcDbLine
 10
-180.0
 20
0.0
 30
0.0
 11
0.0
 21
0.0
 31
0.0
  0
MTEXT
  5
134
330
11F
100
AcDbEntity
  8
0
  6
Continuous
 62
   179
370
     0
100
AcDbMText
 10
-152.1594291518
 20
-12.9932672184
 30
0.0
 40
2.5
 41
0.0
 71
     1
 72
     1
  1
(c)
  7
SLDTEXTSTYLE3
 73
     1
 44
1.0
  0
MTEXT
  5
135
330
11F
100
AcDbEntity
  8
0
  6
Continuous
 62
   179
370
     0
100
AcDbMText
 10
-14.4385313988
 20
-13.1021223902
 30
0.0
 40
2.5
 41
0.0
 71
     1
 72
     1
  1
±4
  7
SLDTEXTSTYLE3
 73
     1
 44
1.0
  0
MTEXT
  5
136
330
11F
100
AcDbEntity
  8
0
  6
Continuous
 62
   179
370
     0
100
AcDbMText
 10
-14.4385313988
 20
-17.1021223902
 30
0.0
 40
2.5
 41
0.0
 71
     1
 72
     1
  1
±8
  7
SLDTEXTSTYLE3
 73
     1
 44
1.0
  0
MTEXT
  5
137
330
11F
100
AcDbEntity
  8
0
  6
Continuous
 62
   179
370
     0
100
AcDbMText
 10
-23.8407053118
 20
-1.1021223902
 30
0.0
 40
2.5
 41
0.0
 71
     1
 72
     1
  1
>2000 <=4000
  7
SLDTEXTSTYLE3
 73
     1
 44
1.0
  0
MTEXT
  5
138
330
11F
100
AcDbEntity
  8
0
  6
Continuous
 62
   179
370
     0
100
AcDbMText
 10
-13.0798357466
 20
-5.1021223902
 30
0.0
 40
2.5
 41
0.0
 71
     1
 72
     1
  1
-
  7
SLDTEXTSTYLE3
 73
     1
 44
1.0
  0
MTEXT
  5
139
330
11F
100
AcDbEntity
  8
0
  6
Continuous
 62
   179
370
     0
100
AcDbMText
 10
-14.4385313988
 20
-9.1021223902
 30
0.0
 40
2.5
 41
0.0
 71
     1
 72
     1
  1
±2
  7
SLDTEXTSTYLE3
 73
     1
 44
1.0
  0
MTEXT
  5
13A
330
11F
100
AcDbEntity
  8
0
  6
Continuous
 62
   179
370
     0
100
AcDbMText
 10
-39.4385313988
 20
-17.1021223902
 30
0.0
 40
2.5
 41
0.0
 71
     1
 72
     1
  1
±6
  7
SLDTEXTSTYLE3
 73
     1
 44
1.0
  0
MTEXT
  5
13B
330
11F
100
AcDbEntity
  8
0
  6
Continuous
 62
   179
370
     0
100
AcDbMText
 10
-39.4385313988
 20
-13.1021223902
 30
0.0
 40
2.5
 41
0.0
 71
     1
 72
     1
  1
±3
  7
SLDTEXTSTYLE3
 73
     1
 44
1.0
  0
MTEXT
  5
13C
330
11F
100
AcDbEntity
  8
0
  6
Continuous
 62
   179
370
     0
100
AcDbMText
 10
-72.8624444423
 20
-1.1021223902
 30
0.0
 40
2.5
 41
0.0
 71
     1
 72
     1
  1
>400 <=1000
  7
SLDTEXTSTYLE3
 73
     1
 44
1.0
  0
MTEXT
  5
13D
330
11F
100
AcDbEntity
  8
0
  6
Continuous
 62
   179
370
     0
100
AcDbMText
 10
-40.9059227031
 20
-9.1021223902
 30
0.0
 40
2.5
 41
0.0
 71
     1
 72
     1
  1
±1.2
  7
SLDTEXTSTYLE3
 73
     1
 44
1.0
  0
MTEXT
  5
13E
330
11F
100
AcDbEntity
  8
0
  6
Continuous
 62
   179
370
     0
100
AcDbMText
 10
-40.9059227031
 20
-5.1021223902
 30
0.0
 40
2.5
 41
0.0
 71
     1
 72
     1
  1
±0.5
  7
SLDTEXTSTYLE3
 73
     1
 44
1.0
  0
MTEXT
  5
13F
330
11F
100
AcDbEntity
  8
0
  6
Continuous
 62
   179
370
     0
100
AcDbMText
 10
-64.4385313988
 20
-17.1021223902
 30
0.0
 40
2.5
 41
0.0
 71
     1
 72
     1
  1
±4
  7
SLDTEXTSTYLE3
 73
     1
 44
1.0
  0
MTEXT
  5
140
330
11F
100
AcDbEntity
  8
0
  6
Continuous
 62
   179
370
     0
100
AcDbMText
 10
-48.8407053118
 20
-1.1021223902
 30
0.0
 40
2.5
 41
0.0
 71
     1
 72
     1
  1
>1000 <=2000
  7
SLDTEXTSTYLE3
 73
     1
 44
1.0
  0
MTEXT
  5
141
330
11F
100
AcDbEntity
  8
0
  6
Continuous
 62
   179
370
     0
100
AcDbMText
 10
-64.4385313988
 20
-13.1021223902
 30
0.0
 40
2.5
 41
0.0
 71
     1
 72
     1
  1
±2
  7
SLDTEXTSTYLE3
 73
     1
 44
1.0
  0
MTEXT
  5
142
330
11F
100
AcDbEntity
  8
0
  6
Continuous
 62
   179
370
     0
100
AcDbMText
 10
-65.9059227031
 20
-9.1021223902
 30
0.0
 40
2.5
 41
0.0
 71
     1
 72
     1
  1
±0.8
  7
SLDTEXTSTYLE3
 73
     1
 44
1.0
  0
MTEXT
  5
143
330
11F
100
AcDbEntity
  8
0
  6
Continuous
 62
   179
370
     0
100
AcDbMText
 10
-88.4059227031
 20
-9.1021223902
 30
0.0
 40
2.5
 41
0.0
 71
     1
 72
     1
  1
±0.5
  7
SLDTEXTSTYLE3
 73
     1
 44
1.0
  0
MTEXT
  5
144
330
11F
100
AcDbEntity
  8
0
  6
Continuous
 62
   179
370
     0
100
AcDbMText
 10
-108.4059227031
 20
-9.1021223902
 30
0.0
 40
2.5
 41
0.0
 71
     1
 72
     1
  1
±0.3
  7
SLDTEXTSTYLE3
 73
     1
 44
1.0
  0
MTEXT
  5
145
330
11F
100
AcDbEntity
  8
0
  6
Continuous
 62
   179
370
     0
100
AcDbMText
 10
-88.4059227031
 20
-5.1021223902
 30
0.0
 40
2.5
 41
0.0
 71
     1
 72
     1
  1
±0.2
  7
SLDTEXTSTYLE3
 73
     1
 44
1.0
  0
MTEXT
  5
146
330
11F
100
AcDbEntity
  8
0
  6
Continuous
 62
   179
370
     0
100
AcDbMText
 10
-108.4059227031
 20
-17.1021223902
 30
0.0
 40
2.5
 41
0.0
 71
     1
 72
     1
  1
±1.5
  7
SLDTEXTSTYLE3
 73
     1
 44
1.0
  0
MTEXT
  5
147
330
11F
100
AcDbEntity
  8
0
  6
Continuous
 62
   179
370
     0
100
AcDbMText
 10
-65.9059227031
 20
-5.1021223902
 30
0.0
 40
2.5
 41
0.0
 71
     1
 72
     1
  1
±0.3
  7
SLDTEXTSTYLE3
 73
     1
 44
1.0
  0
MTEXT
  5
148
330
11F
100
AcDbEntity
  8
0
  6
Continuous
 62
   179
370
     0
100
AcDbMText
 10
-88.4059227031
 20
-17.1021223902
 30
0.0
 40
2.5
 41
0.0
 71
     1
 72
     1
  1
±2.5
  7
SLDTEXTSTYLE3
 73
     1
 44
1.0
  0
MTEXT
  5
149
330
11F
100
AcDbEntity
  8
0
  6
Continuous
 62
   179
370
     0
100
AcDbMText
 10
-94.3841835727
 20
-1.1021223902
 30
0.0
 40
2.5
 41
0.0
 71
     1
 72
     1
  1
>120 <=400
  7
SLDTEXTSTYLE3
 73
     1
 44
1.0
  0
MTEXT
  5
14A
330
11F
100
AcDbEntity
  8
0
  6
Continuous
 62
   179
370
     0
100
AcDbMText
 10
-88.4059227031
 20
-13.1021223902
 30
0.0
 40
2.5
 41
0.0
 71
     1
 72
     1
  1
±1.2
  7
SLDTEXTSTYLE3
 73
     1
 44
1.0
  0
MTEXT
  5
14B
330
11F
100
AcDbEntity
  8
0
  6
Continuous
 62
   179
370
     0
100
AcDbMText
 10
-109.3841835727
 20
-5.1021223902
 30
0.0
 40
2.5
 41
0.0
 71
     1
 72
     1
  1
±0.15
  7
SLDTEXTSTYLE3
 73
     1
 44
1.0
  0
MTEXT
  5
14C
330
11F
100
AcDbEntity
  8
0
  6
Continuous
 62
   179
370
     0
100
AcDbMText
 10
-113.4059227031
 20
-1.1021223902
 30
0.0
 40
2.5
 41
0.0
 71
     1
 72
     1
  1
>30 <=120
  7
SLDTEXTSTYLE3
 73
     1
 44
1.0
  0
MTEXT
  5
14D
330
11F
100
AcDbEntity
  8
0
  6
Continuous
 62
   179
370
     0
100
AcDbMText
 10
-124.4385313988
 20
-17.1021223902
 30
0.0
 40
2.5
 41
0.0
 71
     1
 72
     1
  1
±1
  7
SLDTEXTSTYLE3
 73
     1
 44
1.0
  0
MTEXT
  5
14E
330
11F
100
AcDbEntity
  8
0
  6
Continuous
 62
   179
370
     0
100
AcDbMText
 10
-125.9059227031
 20
-9.1021223902
 30
0.0
 40
2.5
 41
0.0
 71
     1
 72
     1
  1
±0.2
  7
SLDTEXTSTYLE3
 73
     1
 44
1.0
  0
MTEXT
  5
14F
330
11F
100
AcDbEntity
  8
0
  6
Continuous
 62
   179
370
     0
100
AcDbMText
 10
-108.4059227031
 20
-13.1021223902
 30
0.0
 40
2.5
 41
0.0
 71
     1
 72
     1
  1
±0.8
  7
SLDTEXTSTYLE3
 73
     1
 44
1.0
  0
MTEXT
  5
150
330
11F
100
AcDbEntity
  8
0
  6
Continuous
 62
   179
370
     0
100
AcDbMText
 10
-125.9059227031
 20
-5.1021223902
 30
0.0
 40
2.5
 41
0.0
 71
     1
 72
     1
  1
±0.1
  7
SLDTEXTSTYLE3
 73
     1
 44
1.0
  0
MTEXT
  5
151
330
11F
100
AcDbEntity
  8
0
  6
Continuous
 62
   179
370
     0
100
AcDbMText
 10
-128.949400964
 20
-1.1021223902
 30
0.0
 40
2.5
 41
0.0
 71
     1
 72
     1
  1
>6 <=30
  7
SLDTEXTSTYLE3
 73
     1
 44
1.0
  0
MTEXT
  5
152
330
11F
100
AcDbEntity
  8
0
  6
Continuous
 62
   179
370
     0
100
AcDbMText
 10
-140.4983140075
 20
-1.1021223902
 30
0.0
 40
2.5
 41
0.0
 71
     1
 72
     1
  1
<=6
  7
SLDTEXTSTYLE3
 73
     1
 44
1.0
  0
MTEXT
  5
153
330
11F
100
AcDbEntity
  8
0
  6
Continuous
 62
   179
370
     0
100
AcDbMText
 10
-125.9059227031
 20
-13.1021223902
 30
0.0
 40
2.5
 41
0.0
 71
     1
 72
     1
  1
±0.5
  7
SLDTEXTSTYLE3
 73
     1
 44
1.0
  0
MTEXT
  5
154
330
11F
100
AcDbEntity
  8
0
  6
Continuous
 62
   179
370
     0
100
AcDbMText
 10
-140.9059227031
 20
-9.1021223902
 30
0.0
 40
2.5
 41
0.0
 71
     1
 72
     1
  1
±0.1
  7
SLDTEXTSTYLE3
 73
     1
 44
1.0
  0
MTEXT
  5
155
330
11F
100
AcDbEntity
  8
0
  6
Continuous
 62
   179
370
     0
100
AcDbMText
 10
-140.9059227031
 20
-17.1021223902
 30
0.0
 40
2.5
 41
0.0
 71
     1
 72
     1
  1
±0.5
  7
SLDTEXTSTYLE3
 73
     1
 44
1.0
  0
MTEXT
  5
156
330
11F
100
AcDbEntity
  8
0
  6
Continuous
 62
   179
370
     0
100
AcDbMText
 10
-140.9059227031
 20
-13.1021223902
 30
0.0
 40
2.5
 41
0.0
 71
     1
 72
     1
  1
±0.3
  7
SLDTEXTSTYLE3
 73
     1
 44
1.0
  0
MTEXT
  5
157
330
11F
100
AcDbEntity
  8
0
  6
Continuous
 62
   179
370
     0
100
AcDbMText
 10
-141.8841835727
 20
-5.1021223902
 30
0.0
 40
2.5
 41
0.0
 71
     1
 72
     1
  1
±0.05
  7
SLDTEXTSTYLE3
 73
     1
 44
1.0
  0
MTEXT
  5
158
330
11F
100
AcDbEntity
  8
0
  6
Continuous
 62
   179
370
     0
100
AcDbMText
 10
-174.7485158139
 20
-8.9932672184
 30
0.0
 40
2.5
 41
0.0
 71
     1
 72
     1
  1
Medium
  7
SLDTEXTSTYLE3
 73
     1
 44
1.0
  0
MTEXT
  5
159
330
11F
100
AcDbEntity
  8
0
  6
Continuous
 62
   179
370
     0
100
AcDbMText
 10
-174.7485158139
 20
-12.9932672184
 30
0.0
 40
2.5
 41
0.0
 71
     1
 72
     1
  1
Coarse
  7
SLDTEXTSTYLE3
 73
     1
 44
1.0
  0
MTEXT
  5
15A
330
11F
100
AcDbEntity
  8
0
  6
Continuous
 62
   179
370
     0
100
AcDbMText
 10
-151.7789943692
 20
-4.9932672184
 30
0.0
 40
2.5
 41
0.0
 71
     1
 72
     1
  1
(f)
  7
SLDTEXTSTYLE3
 73
     1
 44
1.0
  0
MTEXT
  5
15B
330
11F
100
AcDbEntity
  8
0
  6
Continuous
 62
   179
370
     0
100
AcDbMText
 10
-152.7844291518
 20
-8.9932672184
 30
0.0
 40
2.5
 41
0.0
 71
     1
 72
     1
  1
(m)
  7
SLDTEXTSTYLE3
 73
     1
 44
1.0
  0
MTEXT
  5
15C
330
11F
100
AcDbEntity
  8
0
  6
Continuous
 62
   179
370
     0
100
AcDbMText
 10
-152.1866030649
 20
-16.9932672184
 30
0.0
 40
2.5
 41
0.0
 71
     1
 72
     1
  1
(v)
  7
SLDTEXTSTYLE3
 73
     1
 44
1.0
  0
MTEXT
  5
15D
330
11F
100
AcDbEntity
  8
0
  6
Continuous
 62
   179
370
     0
100
AcDbMText
 10
-174.7485158139
 20
-16.9932672184
 30
0.0
 40
2.5
 41
0.0
 71
     1
 72
     1
  1
Very Coarse
  7
SLDTEXTSTYLE3
 73
     1
 44
1.0
  0
MTEXT
  5
15E
330
11F
100
AcDbEntity
  8
0
  6
Continuous
 62
   179
370
     0
100
AcDbMText
 10
-178.6122169322
 20
-18.8727771349
 30
0.0
 40
2.5
 41
0.0
 71
     1
 72
     1
  1
ISO 2768
  7
SLDTEXTSTYLE3
 11
6.123233995736766E-17
 21
1.0
 31
0.0
 73
     1
 44
1.0
  0
MTEXT
  5
15F
330
11F
100
AcDbEntity
  8
0
  6
Continuous
 62
   179
370
     0
100
AcDbMText
 10
-174.565631434
 20
-0.9932672184
 30
0.0
 40
2.5
 41
0.0
 71
     1
 72
     1
  1
Tolerance Class
  7
SLDTEXTSTYLE3
 73
     1
 44
1.0
  0
MTEXT
  5
160
330
11F
100
AcDbEntity
  8
0
  6
Continuous
 62
   179
370
     0
100
AcDbMText
 10
-174.7485158139
 20
-4.9932672184
 30
0.0
 40
2.5
 41
0.0
 71
     1
 72
     1
  1
Fine
  7
SLDTEXTSTYLE3
 73
     1
 44
1.0
  0
ENDBLK
  5
121
330
11F
100
AcDbEntity
  8
0
100
AcDbBlockEnd
  0
ENDSEC
  0
SECTION
  2
ENTITIES
  0
LINE
  5
161
330
1F
100
AcDbEntity
  8
0
  6
Continuous
 62
     7
370
    15
100
AcDbLine
 10
276.1354583246
 20
520.6343549942
 30
0.0
 11
275.1354583246
 21
521.6343549942
 31
0.0
  0
LINE
  5
162
330
1F
100
AcDbEntity
  8
0
  6
Continuous
 62
     7
370
    15
100
AcDbLine
 10
91.1354583246
 20
521.6343549942
 30
0.0
 11
90.1354583246
 21
520.6343549942
 31
0.0
  0
LINE
  5
163
330
1F
100
AcDbEntity
  8
0
  6
Continuous
 62
     7
370
    15
100
AcDbLine
 10
90.1354583246
 20
520.6343549942
 30
0.0
 11
90.1354583246
 21
516.6343549942
 31
0.0
  0
LINE
  5
164
330
1F
100
AcDbEntity
  8
0
  6
Continuous
 62
     7
370
    15
100
AcDbLine
 10
276.1354583246
 20
516.6343549942
 30
0.0
 11
276.1354583246
 21
520.6343549942
 31
0.0
  0
LINE
  5
165
330
1F
100
AcDbEntity
  8
0
  6
Continuous
 62
     7
370
    15
100
AcDbLine
 10
90.1354583246
 20
526.6343549942
 30
0.0
 11
90.1354583246
 21
522.6343549942
 31
0.0
  0
LINE
  5
166
330
1F
100
AcDbEntity
  8
0
  6
Continuous
 62
     7
370
    15
100
AcDbLine
 10
276.1354583246
 20
522.6343549942
 30
0.0
 11
276.1354583246
 21
526.6343549942
 31
0.0
  0
ARC
  5
167
330
1F
100
AcDbEntity
  8
0
  6
Continuous
 62
     7
370
    15
100
AcDbCircle
 10
92.6354583246
 20
526.6343549942
 30
0.0
 40
2.500000000000014
100
AcDbArc
 50
90.0
 51
180.0
  0
ARC
  5
168
330
1F
100
AcDbEntity
  8
0
  6
Continuous
 62
     7
370
    15
100
AcDbCircle
 10
273.6354583246
 20
526.6343549942
 30
0.0
 40
2.5
100
AcDbArc
 50
0.0
 51
90.0
  0
LINE
  5
169
330
1F
100
AcDbEntity
  8
0
  6
Continuous
 62
     7
370
    15
100
AcDbLine
 10
90.1354583246
 20
522.6343549942
 30
0.0
 11
91.1354583246
 21
521.6343549942
 31
0.0
  0
LINE
  5
16A
330
1F
100
AcDbEntity
  8
0
  6
Continuous
 62
     7
370
    15
100
AcDbLine
 10
275.1354583246
 20
521.6343549942
 30
0.0
 11
276.1354583246
 21
522.6343549942
 31
0.0
  0
ARC
  5
16B
330
1F
100
AcDbEntity
  8
0
  6
Continuous
 62
     7
370
    15
100
AcDbCircle
 10
92.6354583246
 20
516.6343549942
 30
0.0
 40
2.500000000000014
100
AcDbArc
 50
180.0
 51
270.0
  0
ARC
  5
16C
330
1F
100
AcDbEntity
  8
0
  6
Continuous
 62
     7
370
    15
100
AcDbCircle
 10
273.6354583246
 20
516.6343549942
 30
0.0
 40
2.5
100
AcDbArc
 50
270.0
 51
0.0
  0
ARC
  5
16D
330
1F
100
AcDbEntity
  8
0
  6
Continuous
 62
     7
370
    15
100
AcDbCircle
 10
97.6354583246
 20
511.6343549942
 30
0.0
 40
2.5
100
AcDbArc
 50
0.0
 51
90.0
  0
ARC
  5
16E
330
1F
100
AcDbEntity
  8
0
  6
Continuous
 62
     7
370
    15
100
AcDbCircle
 10
268.6354583246
 20
511.6343549942
 30
0.0
 40
2.5
100
AcDbArc
 50
90.0
 51
180.0
  0
ARC
  5
16F
330
1F
100
AcDbEntity
  8
0
  6
Continuous
 62
     7
370
    15
100
AcDbCircle
 10
115.1354583246
 20
404.1343549942
 30
0.0
 40
15.0
100
AcDbArc
 50
180.0
 51
270.0
  0
ARC
  5
170
330
1F
100
AcDbEntity
  8
0
  6
Continuous
 62
     7
370
    15
100
AcDbCircle
 10
251.1354583246
 20
404.1343549942
 30
0.0
 40
15.00000000000003
100
AcDbArc
 50
270.0
 51
0.0
  0
LINE
  5
171
330
1F
100
AcDbEntity
  8
0
  6
Continuous
 62
     7
370
    15
100
AcDbLine
 10
100.1354583246
 20
511.6343549942
 30
0.0
 11
100.1354583246
 21
404.1343549942
 31
0.0
  0
LINE
  5
172
330
1F
100
AcDbEntity
  8
0
  6
Continuous
 62
     7
370
    15
100
AcDbLine
 10
266.1354583246
 20
404.1343549942
 30
0.0
 11
266.1354583246
 21
511.6343549942
 31
0.0
  0
LINE
  5
173
330
1F
100
AcDbEntity
  8
0
  6
Continuous
 62
     7
370
    15
100
AcDbLine
 10
276.1354583246
 20
520.6343549942
 30
0.0
 11
90.1354583246
 21
520.6343549942
 31
0.0
  0
LINE
  5
174
330
1F
100
AcDbEntity
  8
0
  6
Continuous
 62
     7
370
    15
100
AcDbLine
 10
275.1354583246
 20
521.6343549942
 30
0.0
 11
91.1354583246
 21
521.6343549942
 31
0.0
  0
LINE
  5
175
330
1F
100
AcDbEntity
  8
0
  6
Continuous
 62
     7
370
    15
100
AcDbLine
 10
276.1354583246
 20
522.6343549942
 30
0.0
 11
90.1354583246
 21
522.6343549942
 31
0.0
  0
ARC
  5
176
330
1F
100
AcDbEntity
  8
0
  6
Continuous
 62
     7
370
    15
100
AcDbCircle
 10
153.1354583246
 20
426.1343549942
 30
0.0
 40
10.0
100
AcDbArc
 50
180.0
 51
270.0
  0
LINE
  5
177
330
1F
100
AcDbEntity
  8
0
  6
Continuous
 62
     7
370
    15
100
AcDbLine
 10
143.1354583246
 20
486.1343549942
 30
0.0
 11
143.1354583246
 21
426.1343549942
 31
0.0
  0
LINE
  5
178
330
1F
100
AcDbEntity
  8
0
  6
Continuous
 62
     7
370
    15
100
AcDbLine
 10
213.1354583246
 20
496.1343549942
 30
0.0
 11
153.1354583246
 21
496.1343549942
 31
0.0
  0
LINE
  5
179
330
1F
100
AcDbEntity
  8
0
  6
Continuous
 62
     7
370
    15
100
AcDbLine
 10
223.1354583246
 20
426.1343549942
 30
0.0
 11
223.1354583246
 21
486.1343549942
 31
0.0
  0
ARC
  5
17A
330
1F
100
AcDbEntity
  8
0
  6
Continuous
 62
     7
370
    15
100
AcDbCircle
 10
213.1354583246
 20
486.1343549942
 30
0.0
 40
10.0
100
AcDbArc
 50
0.0
 51
90.0
  0
ARC
  5
17B
330
1F
100
AcDbEntity
  8
0
  6
Continuous
 62
     7
370
    15
100
AcDbCircle
 10
153.1354583246
 20
486.1343549942
 30
0.0
 40
10.00000000000003
100
AcDbArc
 50
90.0
 51
180.0
  0
LINE
  5
17C
330
1F
100
AcDbEntity
  8
0
  6
Continuous
 62
     7
370
    15
100
AcDbLine
 10
153.1354583246
 20
416.1343549942
 30
0.0
 11
213.1354583246
 21
416.1343549942
 31
0.0
  0
CIRCLE
  5
17D
330
1F
100
AcDbEntity
  8
0
  6
Continuous
 62
     7
370
    15
100
AcDbCircle
 10
183.1354583246
 20
456.1343549942
 30
0.0
 40
28.49999999999997
  0
ARC
  5
17E
330
1F
100
AcDbEntity
  8
0
  6
Continuous
 62
     7
370
    15
100
AcDbCircle
 10
213.1354583246
 20
426.1343549942
 30
0.0
 40
10.0
100
AcDbArc
 50
270.0
 51
0.0
  0
LINE
  5
17F
330
1F
100
AcDbEntity
  8
0
  6
Continuous
 62
     7
370
    15
100
AcDbLine
 10
183.1354583246
 20
529.1343549942
 30
0.0
 11
273.6354583246
 21
529.1343549942
 31
0.0
  0
LINE
  5
180
330
1F
100
AcDbEntity
  8
0
  6
Continuous
 62
     7
370
    15
100
AcDbLine
 10
92.6354583246
 20
529.1343549942
 30
0.0
 11
183.1354583246
 21
529.1343549942
 31
0.0
  0
LINE
  5
181
330
1F
100
AcDbEntity
  8
0
  6
Continuous
 62
     7
370
    15
100
AcDbLine
 10
183.1354583246
 20
514.1343549942
 30
0.0
 11
92.6354583246
 21
514.1343549942
 31
0.0
  0
LINE
  5
182
330
1F
100
AcDbEntity
  8
0
  6
Continuous
 62
     7
370
    15
100
AcDbLine
 10
273.6354583246
 20
514.1343549942
 30
0.0
 11
183.1354583246
 21
514.1343549942
 31
0.0
  0
LINE
  5
183
330
1F
100
AcDbEntity
  8
0
  6
Continuous
 62
     7
370
    15
100
AcDbLine
 10
154.0126513071
 20
498.6343549942
 30
0.0
 11
212.2582653422
 21
498.6343549942
 31
0.0
  0
LWPOLYLINE
  5
184
330
1F
100
AcDbEntity
  8
0
  6
Continuous
 62
     7
370
    15
100
AcDbPolyline
 90
        9
 70
   128
 43
0.0
 10
212.2582653422
 20
498.6343549942
 10
212.2751203594
 20
498.1466291892
 10
212.3250376821
 20
497.6776464133
 10
212.4060990156
 20
497.2454294117
 10
212.5151892183
 20
496.8665880413
 10
212.648116015
 20
496.5556809635
 10
212.7997711033
 20
496.324656163
 10
212.9643264632
 20
496.1823917932
 10
213.1354583246
 20
496.1343549942
  0
LWPOLYLINE
  5
185
330
1F
100
AcDbEntity
  8
0
  6
Continuous
 62
     7
370
    15
100
AcDbPolyline
 90
        9
 70
   128
 43
0.0
 10
154.0126513071
 20
498.6343549942
 10
153.9957962899
 20
498.1466291892
 10
153.9458789672
 20
497.6776464133
 10
153.8648176337
 20
497.2454294117
 10
153.7557274309
 20
496.8665880413
 10
153.6228006343
 20
496.5556809635
 10
153.471145546
 20
496.324656163
 10
153.3065901861
 20
496.1823917932
 10
153.1354583246
 20
496.1343549942
  0
LWPOLYLINE
  5
186
330
1F
100
AcDbEntity
  8
0
  6
Continuous
 62
     7
370
    15
100
AcDbPolyline
 90
        9
 70
   128
 43
0.0
 10
213.1354583246
 20
416.1343549942
 10
212.9643264632
 20
416.0863181953
 10
212.7997711033
 20
415.9440538255
 10
212.648116015
 20
415.713029025
 10
212.5151892183
 20
415.4021219472
 10
212.4060990156
 20
415.0232805768
 10
212.3250376821
 20
414.5910635752
 10
212.2751203594
 20
414.1220807993
 10
212.2582653422
 20
413.6343549942
  0
LINE
  5
187
330
1F
100
AcDbEntity
  8
0
  6
Continuous
 62
     7
370
    15
100
AcDbLine
 10
212.2582653422
 20
413.6343549942
 30
0.0
 11
154.0126513071
 21
413.6343549942
 31
0.0
  0
LWPOLYLINE
  5
188
330
1F
100
AcDbEntity
  8
0
  6
Continuous
 62
     7
370
    15
100
AcDbPolyline
 90
        9
 70
   128
 43
0.0
 10
153.1354583246
 20
416.1343549942
 10
153.3065901861
 20
416.0863181953
 10
153.471145546
 20
415.9440538255
 10
153.6228006343
 20
415.713029025
 10
153.7557274309
 20
415.4021219472
 10
153.8648176337
 20
415.0232805768
 10
153.9458789672
 20
414.5910635752
 10
153.9957962899
 20
414.1220807993
 10
154.0126513071
 20
413.6343549942
  0
LINE
  5
189
330
1F
100
AcDbEntity
  8
0
  6
Continuous
 62
     7
370
    15
100
AcDbLine
 10
183.1354583246
 20
389.1343549942
 30
0.0
 11
115.1354583246
 21
389.1343549942
 31
0.0
  0
LINE
  5
18A
330
1F
100
AcDbEntity
  8
0
  6
Continuous
 62
     7
370
    15
100
AcDbLine
 10
251.1354583246
 20
389.1343549942
 30
0.0
 11
183.1354583246
 21
389.1343549942
 31
0.0
  0
SPLINE
  5
18B
330
1F
100
AcDbEntity
  8
0
  6
Continuous
 62
     7
370
    15
100
AcDbSpline
210
0.0
220
0.0
230
1.0
 70
     8
 71
     3
 72
    30
 73
    26
 74
     0
 42
0.000000001
 43
0.00000001
 40
0.0
 40
0.0
 40
0.0
 40
0.0
 40
0.0624999999999996
 40
0.0624999999999996
 40
0.1249999999999992
 40
0.1249999999999992
 40
0.2499999999999993
 40
0.2499999999999993
 40
0.3124999999999989
 40
0.3124999999999989
 40
0.3749999999999986
 40
0.3749999999999986
 40
0.4999999999999979
 40
0.4999999999999979
 40
0.5624999999999979
 40
0.5624999999999979
 40
0.6249999999999979
 40
0.6249999999999979
 40
0.7499999999999986
 40
0.7499999999999986
 40
0.8124999999999987
 40
0.8124999999999987
 40
0.8749999999999988
 40
0.8749999999999988
 40
1.0
 40
1.0
 40
1.0
 40
1.0
 10
141.8781483831162
 20
486.1343549942465
 30
0.0
 10
141.8781483831162
 20
486.5624452594701
 30
0.0
 10
141.8994404003998
 20
486.98883643299
 30
0.0
 10
141.9842692486209
 20
487.8382527857511
 30
0.0
 10
142.047805460628
 20
488.2592748822648
 30
0.0
 10
142.2961797178162
 20
489.4939263296197
 30
0.0
 10
142.5388415337756
 20
490.2867085791236
 30
0.0
 10
143.0147075799908
 20
491.4326253684549
 30
0.0
 10
143.1934479712632
 20
491.8096612324127
 30
0.0
 10
143.5823919314612
 20
492.535865116709
 30
0.0
 10
143.7920149658785
 20
492.8846678164633
 30
0.0
 10
144.464131373068
 20
493.8908786338783
 30
0.0
 10
144.9694440131572
 20
494.5084810100793
 30
0.0
 10
145.8131351215555
 20
495.3577426128144
 30
0.0
 10
146.1101880763923
 20
495.6288448294068
 30
0.0
 10
146.7212344279875
 20
496.1342156074755
 30
0.0
 10
147.0362943868561
 20
496.3697873755082
 30
0.0
 10
148.0096292098227
 20
497.0269636870387
 30
0.0
 10
148.6957882174002
 20
497.399533732837
 30
0.0
 10
149.7840606725716
 20
497.8577761206147
 30
0.0
 10
150.1559416955435
 20
497.9930311169398
 30
0.0
 10
150.9043762168505
 20
498.2240113123031
 30
0.0
 10
151.2827680942046
 20
498.3205529156969
 30
0.0
 10
152.4305770614418
 20
498.5536741426839
 30
0.0
 10
153.212523684175
 20
498.6343549942465
 30
0.0
 10
154.0126513070929
 20
498.6343549942465
 30
0.0
  0
LINE
  5
18C
330
1F
100
AcDbEntity
  8
0
  6
Continuous
 62
     7
370
    15
100
AcDbLine
 10
141.8781483831
 20
426.1343549942
 30
0.0
 11
141.8781483831
 21
486.1343549942
 31
0.0
  0
SPLINE
  5
18D
330
1F
100
AcDbEntity
  8
0
  6
Continuous
 62
     7
370
    15
100
AcDbSpline
210
0.0
220
0.0
230
1.0
 70
     8
 71
     3
 72
    28
 73
    24
 74
     0
 42
0.000000001
 43
0.00000001
 40
0.0
 40
0.0
 40
0.0
 40
0.0
 40
0.1249999999999992
 40
0.1249999999999992
 40
0.1874999999999988
 40
0.1874999999999988
 40
0.2499999999999983
 40
0.2499999999999983
 40
0.3749999999999978
 40
0.3749999999999978
 40
0.4374999999999972
 40
0.4374999999999972
 40
0.4999999999999966
 40
0.4999999999999966
 40
0.6249999999999973
 40
0.6249999999999973
 40
0.7499999999999982
 40
0.7499999999999982
 40
0.8124999999999986
 40
0.8124999999999986
 40
0.8749999999999989
 40
0.8749999999999989
 40
1.0
 40
1.0
 40
1.0
 40
1.0
 10
154.0126513070929
 20
413.6343549942465
 30
0.0
 10
153.2138562984258
 20
413.6343549942465
 30
0.0
 10
152.4316185170819
 20
413.7147844916763
 30
0.0
 10
151.281380225598
 20
413.9484588896127
 30
0.0
 10
150.9018428440543
 20
414.0453363282684
 30
0.0
 10
150.1504851627719
 20
414.2775085877848
 30
0.0
 10
149.7791053620889
 20
414.4129131663212
 30
0.0
 10
148.6973312524798
 20
414.8687422742552
 30
0.0
 10
148.011726535677
 20
415.2403242613486
 30
0.0
 10
147.0351509708352
 20
415.8996976088759
 30
0.0
 10
146.717162727888
 20
416.1375991246113
 30
0.0
 10
146.1046053111771
 20
416.6447493921636
 30
0.0
 10
145.8116002998635
 20
416.9124928559734
 30
0.0
 10
144.9716139085403
 20
417.7580837377434
 30
0.0
 10
144.4628964580019
 20
418.378267884858
 30
0.0
 10
143.5557785571796
 20
419.7391398355707
 30
0.0
 10
143.1704596179719
 20
420.4601070848543
 30
0.0
 10
142.695780121584
 20
421.6045456618385
 30
0.0
 10
142.5547869193416
 20
421.9969749788289
 30
0.0
 10
142.3098830858202
 20
422.8028470416656
 30
0.0
 10
142.2079145525873
 20
423.2097966690614
 30
0.0
 10
141.9622514250403
 20
424.4425337306025
 30
0.0
 10
141.8781483831163
 20
425.2800912081207
 30
0.0
 10
141.8781483831163
 20
426.1343549942465
 30
0.0
  0
SPLINE
  5
18E
330
1F
100
AcDbEntity
  8
0
  6
Continuous
 62
     7
370
    15
100
AcDbSpline
210
0.0
220
0.0
230
1.0
 70
     8
 71
     3
 72
    30
 73
    26
 74
     0
 42
0.000000001
 43
0.00000001
 40
0.0
 40
0.0
 40
0.0
 40
0.0
 40
0.0625000000000007
 40
0.0625000000000007
 40
0.1250000000000015
 40
0.1250000000000015
 40
0.250000000000002
 40
0.250000000000002
 40
0.3125000000000018
 40
0.3125000000000018
 40
0.3750000000000017
 40
0.3750000000000017
 40
0.5000000000000013
 40
0.5000000000000013
 40
0.5625000000000016
 40
0.5625000000000016
 40
0.6250000000000017
 40
0.6250000000000017
 40
0.7500000000000006
 40
0.7500000000000006
 40
0.8125000000000002
 40
0.8125000000000002
 40
0.8749999999999998
 40
0.8749999999999998
 40
1.0
 40
1.0
 40
1.0
 40
1.0
 10
224.3927682661572
 20
426.1343549942465
 30
0.0
 10
224.3927682661572
 20
425.7062647290228
 30
0.0
 10
224.3714762488737
 20
425.2798735555029
 30
0.0
 10
224.2866474006526
 20
424.4304572027418
 30
0.0
 10
224.2231111886455
 20
424.0094351062281
 30
0.0
 10
223.9747369314572
 20
422.7747836588731
 30
0.0
 10
223.7320751154978
 20
421.9820014093694
 30
0.0
 10
223.2562090692826
 20
420.836084620038
 30
0.0
 10
223.0774686780103
 20
420.4590487560802
 30
0.0
 10
222.6885247178122
 20
419.7328448717839
 30
0.0
 10
222.478901683395
 20
419.3840421720296
 30
0.0
 10
221.8067852762055
 20
418.3778313546146
 30
0.0
 10
221.3014726361162
 20
417.7602289784136
 30
0.0
 10
220.457781527718
 20
416.9109673756785
 30
0.0
 10
220.1607285728811
 20
416.6398651590861
 30
0.0
 10
219.549682221286
 20
416.1344943810174
 30
0.0
 10
219.2346222624174
 20
415.8989226129847
 30
0.0
 10
218.2612874394508
 20
415.2417463014542
 30
0.0
 10
217.5751284318732
 20
414.8691762556559
 30
0.0
 10
216.4868559767019
 20
414.4109338678782
 30
0.0
 10
216.11497495373
 20
414.2756788715531
 30
0.0
 10
215.366540432423
 20
414.0446986761898
 30
0.0
 10
214.9881485550689
 20
413.9481570727961
 30
0.0
 10
213.8403395878317
 20
413.7150358458089
 30
0.0
 10
213.0583929650985
 20
413.6343549942465
 30
0.0
 10
212.2582653421806
 20
413.6343549942465
 30
0.0
  0
LINE
  5
18F
330
1F
100
AcDbEntity
  8
0
  6
Continuous
 62
     7
370
    15
100
AcDbLine
 10
224.3927682662
 20
486.1343549942
 30
0.0
 11
224.3927682662
 21
426.1343549942
 31
0.0
  0
SPLINE
  5
190
330
1F
100
AcDbEntity
  8
0
  6
Continuous
 62
     7
370
    15
100
AcDbSpline
210
0.0
220
0.0
230
1.0
 70
     8
 71
     3
 72
    28
 73
    24
 74
     0
 42
0.000000001
 43
0.00000001
 40
0.0
 40
0.0
 40
0.0
 40
0.0
 40
0.1250000000000004
 40
0.1250000000000004
 40
0.1875000000000006
 40
0.1875000000000006
 40
0.2500000000000008
 40
0.2500000000000008
 40
0.375
 40
0.375
 40
0.4375
 40
0.4375
 40
0.5
 40
0.5
 40
0.625
 40
0.625
 40
0.7499999999999999
 40
0.7499999999999999
 40
0.8124999999999999
 40
0.8124999999999999
 40
0.8749999999999999
 40
0.8749999999999999
 40
1.0
 40
1.0
 40
1.0
 40
1.0
 10
212.2582653421806
 20
498.6343549942465
 30
0.0
 10
213.0570603508476
 20
498.6343549942465
 30
0.0
 10
213.8392981321915
 20
498.5539254968166
 30
0.0
 10
214.9895364236755
 20
498.3202510988802
 30
0.0
 10
215.3690738052191
 20
498.2233736602245
 30
0.0
 10
216.1204314865015
 20
497.9912014007081
 30
0.0
 10
216.4918112871846
 20
497.8557968221717
 30
0.0
 10
217.5735853967937
 20
497.3999677142376
 30
0.0
 10
218.2591901135965
 20
497.0283857271443
 30
0.0
 10
219.2357656784383
 20
496.3690123796169
 30
0.0
 10
219.5537539213854
 20
496.1311108638816
 30
0.0
 10
220.1663113380964
 20
495.6239605963292
 30
0.0
 10
220.4593163494099
 20
495.3562171325195
 30
0.0
 10
221.2993027407331
 20
494.5106262507495
 30
0.0
 10
221.8080201912716
 20
493.8904421036349
 30
0.0
 10
222.7151380920939
 20
492.5295701529222
 30
0.0
 10
223.1004570313015
 20
491.8086029036385
 30
0.0
 10
223.5751365276895
 20
490.6641643266544
 30
0.0
 10
223.7161297299319
 20
490.271735009664
 30
0.0
 10
223.9610335634532
 20
489.4658629468272
 30
0.0
 10
224.0630020966861
 20
489.0589133194314
 30
0.0
 10
224.3086652242331
 20
487.8261762578904
 30
0.0
 10
224.3927682661572
 20
486.9886187803722
 30
0.0
 10
224.3927682661572
 20
486.1343549942465
 30
0.0
  0
LINE
  5
191
330
1F
100
AcDbEntity
  8
0
  6
Continuous
 62
     7
370
    15
100
AcDbLine
 10
223.1354583246
 20
426.1343549942
 30
0.0
 11
224.3927682662
 21
426.1343549942
 31
0.0
  0
LINE
  5
192
330
1F
100
AcDbEntity
  8
0
  6
Continuous
 62
     7
370
    15
100
AcDbLine
 10
141.8781483831
 20
486.1343549942
 30
0.0
 11
143.1354583246
 21
486.1343549942
 31
0.0
  0
LINE
  5
193
330
1F
100
AcDbEntity
  8
0
  6
Continuous
 62
     7
370
    15
100
AcDbLine
 10
141.8781483831
 20
426.1343549942
 30
0.0
 11
143.1354583246
 21
426.1343549942
 31
0.0
  0
LINE
  5
194
330
1F
100
AcDbEntity
  8
0
  6
Continuous
 62
     7
370
    15
100
AcDbLine
 10
223.1354583246
 20
486.1343549942
 30
0.0
 11
224.3927682662
 21
486.1343549942
 31
0.0
  0
LINE
  5
195
330
1F
100
AcDbEntity
  8
0
  6
Continuous
 62
     7
370
    15
100
AcDbLine
 10
143.1354583246
 20
532.1343549942
 30
0.0
 11
143.1354583246
 21
529.1343549942
 31
0.0
  0
LINE
  5
196
330
1F
100
AcDbEntity
  8
0
  6
Continuous
 62
     7
370
    15
100
AcDbLine
 10
143.1354583246
 20
532.1343549942
 30
0.0
 11
150.1354583246
 21
532.1343549942
 31
0.0
  0
LINE
  5
197
330
1F
100
AcDbEntity
  8
0
  6
Continuous
 62
     7
370
    15
100
AcDbLine
 10
150.1354583246
 20
532.1343549942
 30
0.0
 11
150.1354583246
 21
529.1343549942
 31
0.0
  0
LINE
  5
198
330
1F
100
AcDbEntity
  8
0
  6
Continuous
 62
     7
370
    15
100
AcDbLine
 10
136.1354583246
 20
532.1343549942
 30
0.0
 11
136.1354583246
 21
529.1343549942
 31
0.0
  0
LINE
  5
199
330
1F
100
AcDbEntity
  8
0
  6
Continuous
 62
     7
370
    15
100
AcDbLine
 10
136.1354583246
 20
532.1343549942
 30
0.0
 11
143.1354583246
 21
532.1343549942
 31
0.0
  0
LINE
  5
19A
330
1F
100
AcDbEntity
  8
0
  6
Continuous
 62
     7
370
    15
100
AcDbLine
 10
216.1354583246
 20
532.1343549942
 30
0.0
 11
216.1354583246
 21
529.1343549942
 31
0.0
  0
LINE
  5
19B
330
1F
100
AcDbEntity
  8
0
  6
Continuous
 62
     7
370
    15
100
AcDbLine
 10
216.1354583246
 20
532.1343549942
 30
0.0
 11
223.1354583246
 21
532.1343549942
 31
0.0
  0
LINE
  5
19C
330
1F
100
AcDbEntity
  8
0
  6
Continuous
 62
     7
370
    15
100
AcDbLine
 10
223.1354583246
 20
532.1343549942
 30
0.0
 11
223.1354583246
 21
529.1343549942
 31
0.0
  0
LINE
  5
19D
330
1F
100
AcDbEntity
  8
0
  6
Continuous
 62
     7
370
    15
100
AcDbLine
 10
223.1354583246
 20
532.1343549942
 30
0.0
 11
230.1354583246
 21
532.1343549942
 31
0.0
  0
LINE
  5
19E
330
1F
100
AcDbEntity
  8
0
  6
Continuous
 62
     7
370
    15
100
AcDbLine
 10
230.1354583246
 20
532.1343549942
 30
0.0
 11
230.1354583246
 21
529.1343549942
 31
0.0
  0
LINE
  5
19F
330
1F
100
AcDbEntity
  8
0
  6
Continuous
 62
     7
370
    15
100
AcDbLine
 10
96.1354583246
 20
532.1343549942
 30
0.0
 11
96.1354583246
 21
529.1343549942
 31
0.0
  0
LINE
  5
1A0
330
1F
100
AcDbEntity
  8
0
  6
Continuous
 62
     7
370
    15
100
AcDbLine
 10
96.1354583246
 20
532.1343549942
 30
0.0
 11
103.1354583246
 21
532.1343549942
 31
0.0
  0
LINE
  5
1A1
330
1F
100
AcDbEntity
  8
0
  6
Continuous
 62
     7
370
    15
100
AcDbLine
 10
103.1354583246
 20
532.1343549942
 30
0.0
 11
103.1354583246
 21
529.1343549942
 31
0.0
  0
LINE
  5
1A2
330
1F
100
AcDbEntity
  8
0
  6
Continuous
 62
     7
370
    15
100
AcDbLine
 10
103.1354583246
 20
532.1343549942
 30
0.0
 11
110.1354583246
 21
532.1343549942
 31
0.0
  0
LINE
  5
1A3
330
1F
100
AcDbEntity
  8
0
  6
Continuous
 62
     7
370
    15
100
AcDbLine
 10
110.1354583246
 20
532.1343549942
 30
0.0
 11
110.1354583246
 21
529.1343549942
 31
0.0
  0
LINE
  5
1A4
330
1F
100
AcDbEntity
  8
0
  6
Continuous
 62
     7
370
    15
100
AcDbLine
 10
256.1354583246
 20
532.1343549942
 30
0.0
 11
256.1354583246
 21
529.1343549942
 31
0.0
  0
LINE
  5
1A5
330
1F
100
AcDbEntity
  8
0
  6
Continuous
 62
     7
370
    15
100
AcDbLine
 10
263.1354583246
 20
532.1343549942
 30
0.0
 11
263.1354583246
 21
529.1343549942
 31
0.0
  0
LINE
  5
1A6
330
1F
100
AcDbEntity
  8
0
  6
Continuous
 62
     7
370
    15
100
AcDbLine
 10
256.1354583246
 20
532.1343549942
 30
0.0
 11
263.1354583246
 21
532.1343549942
 31
0.0
  0
LINE
  5
1A7
330
1F
100
AcDbEntity
  8
0
  6
Continuous
 62
     7
370
    15
100
AcDbLine
 10
270.1354583246
 20
532.1343549942
 30
0.0
 11
270.1354583246
 21
529.1343549942
 31
0.0
  0
LINE
  5
1A8
330
1F
100
AcDbEntity
  8
0
  6
Continuous
 62
     7
370
    15
100
AcDbLine
 10
263.1354583246
 20
532.1343549942
 30
0.0
 11
270.1354583246
 21
532.1343549942
 31
0.0
  0
LINE
  5
1A9
330
1F
100
AcDbEntity
  8
0
  6
Continuous
 62
     8
370
    15
100
AcDbLine
 10
183.1354583246
 20
516.6343549942
 30
0.0
 11
276.1354583246
 21
516.6343549942
 31
0.0
  0
LINE
  5
1AA
330
1F
100
AcDbEntity
  8
0
  6
Continuous
 62
     8
370
    15
100
AcDbLine
 10
90.1354583246
 20
516.6343549942
 30
0.0
 11
183.1354583246
 21
516.6343549942
 31
0.0
  0
LINE
  5
1AB
330
1F
100
AcDbEntity
  8
0
  6
Continuous
 62
     8
370
    15
100
AcDbLine
 10
183.1354583246
 20
526.6343549942
 30
0.0
 11
90.1354583246
 21
526.6343549942
 31
0.0
  0
LINE
  5
1AC
330
1F
100
AcDbEntity
  8
0
  6
Continuous
 62
     8
370
    15
100
AcDbLine
 10
276.1354583246
 20
526.6343549942
 30
0.0
 11
183.1354583246
 21
526.6343549942
 31
0.0
  0
LINE
  5
1AD
330
1F
100
AcDbEntity
  8
0
  6
Continuous
 62
     8
370
    15
100
AcDbLine
 10
183.1354583246
 20
511.6343549942
 30
0.0
 11
100.1354583246
 21
511.6343549942
 31
0.0
  0
LINE
  5
1AE
330
1F
100
AcDbEntity
  8
0
  6
Continuous
 62
     8
370
    15
100
AcDbLine
 10
266.1354583246
 20
511.6343549942
 30
0.0
 11
183.1354583246
 21
511.6343549942
 31
0.0
  0
LINE
  5
1AF
330
1F
100
AcDbEntity
  8
0
  6
Continuous
 62
     8
370
    15
100
AcDbLine
 10
183.1354583246
 20
404.1343549942
 30
0.0
 11
266.1354583246
 21
404.1343549942
 31
0.0
  0
LINE
  5
1B0
330
1F
100
AcDbEntity
  8
0
  6
Continuous
 62
     8
370
    15
100
AcDbLine
 10
100.1354583246
 20
404.1343549942
 30
0.0
 11
183.1354583246
 21
404.1343549942
 31
0.0
  0
ARC
  5
1B1
330
1F
100
AcDbEntity
  8
0
  6
Continuous
 62
     7
370
     0
100
AcDbCircle
 10
183.1354583246
 20
456.1343549942
 30
0.0
 40
29.81000021100059
100
AcDbArc
 50
255.0
 51
195.0
  0
LINE
  5
1B2
330
1F
100
AcDbEntity
  8
0
  6
Continuous
 62
     7
370
    15
100
AcDbLine
 10
655.1920262015
 20
520.6343549942
 30
0.0
 11
654.1920262015
 21
521.6343549942
 31
0.0
  0
LINE
  5
1B3
330
1F
100
AcDbEntity
  8
0
  6
Continuous
 62
     7
370
    15
100
AcDbLine
 10
470.1920262015
 20
521.6343549942
 30
0.0
 11
469.1920262015
 21
520.6343549942
 31
0.0
  0
LINE
  5
1B4
330
1F
100
AcDbEntity
  8
0
  6
Continuous
 62
     7
370
    15
100
AcDbLine
 10
469.1920262015
 20
520.6343549942
 30
0.0
 11
469.1920262015
 21
516.6343549942
 31
0.0
  0
LINE
  5
1B5
330
1F
100
AcDbEntity
  8
0
  6
Continuous
 62
     7
370
    15
100
AcDbLine
 10
655.1920262015
 20
516.6343549942
 30
0.0
 11
655.1920262015
 21
520.6343549942
 31
0.0
  0
LINE
  5
1B6
330
1F
100
AcDbEntity
  8
0
  6
Continuous
 62
     7
370
    15
100
AcDbLine
 10
469.1920262015
 20
526.6343549942
 30
0.0
 11
469.1920262015
 21
522.6343549942
 31
0.0
  0
LINE
  5
1B7
330
1F
100
AcDbEntity
  8
0
  6
Continuous
 62
     7
370
    15
100
AcDbLine
 10
655.1920262015
 20
522.6343549942
 30
0.0
 11
655.1920262015
 21
526.6343549942
 31
0.0
  0
LINE
  5
1B8
330
1F
100
AcDbEntity
  8
0
  6
Continuous
 62
     7
370
    15
100
AcDbLine
 10
469.1920262015
 20
522.6343549942
 30
0.0
 11
470.1920262015
 21
521.6343549942
 31
0.0
  0
LINE
  5
1B9
330
1F
100
AcDbEntity
  8
0
  6
Continuous
 62
     7
370
    15
100
AcDbLine
 10
654.1920262015
 20
521.6343549942
 30
0.0
 11
655.1920262015
 21
522.6343549942
 31
0.0
  0
ARC
  5
1BA
330
1F
100
AcDbEntity
  8
0
  6
Continuous
 62
     7
370
    15
100
AcDbCircle
 10
471.6920262015
 20
516.6343549942
 30
0.0
 40
2.5
100
AcDbArc
 50
180.0
 51
270.0
  0
ARC
  5
1BB
330
1F
100
AcDbEntity
  8
0
  6
Continuous
 62
     7
370
    15
100
AcDbCircle
 10
652.6920262015
 20
516.6343549942
 30
0.0
 40
2.5
100
AcDbArc
 50
270.0
 51
0.0
  0
ARC
  5
1BC
330
1F
100
AcDbEntity
  8
0
  6
Continuous
 62
     7
370
    15
100
AcDbCircle
 10
471.6920262015
 20
526.6343549942
 30
0.0
 40
2.5
100
AcDbArc
 50
90.0
 51
180.0
  0
ARC
  5
1BD
330
1F
100
AcDbEntity
  8
0
  6
Continuous
 62
     7
370
    15
100
AcDbCircle
 10
652.6920262015
 20
526.6343549942
 30
0.0
 40
2.5
100
AcDbArc
 50
0.0
 51
90.0
  0
ARC
  5
1BE
330
1F
100
AcDbEntity
  8
0
  6
Continuous
 62
     7
370
    15
100
AcDbCircle
 10
476.6920262015
 20
511.6343549942
 30
0.0
 40
2.5
100
AcDbArc
 50
0.0
 51
90.0
  0
ARC
  5
1BF
330
1F
100
AcDbEntity
  8
0
  6
Continuous
 62
     7
370
    15
100
AcDbCircle
 10
647.6920262015
 20
511.6343549942
 30
0.0
 40
2.500000000000114
100
AcDbArc
 50
90.0
 51
180.0
  0
LINE
  5
1C0
330
1F
100
AcDbEntity
  8
0
  6
Continuous
 62
     7
370
    15
100
AcDbLine
 10
479.1920262015
 20
413.6343549942
 30
0.0
 11
479.1920262015
 21
404.1343549942
 31
0.0
  0
LINE
  5
1C1
330
1F
100
AcDbEntity
  8
0
  6
Continuous
 62
     7
370
    15
100
AcDbLine
 10
479.1920262015
 20
511.6343549942
 30
0.0
 11
479.1920262015
 21
498.6343549942
 31
0.0
  0
LINE
  5
1C2
330
1F
100
AcDbEntity
  8
0
  6
Continuous
 62
     7
370
    15
100
AcDbLine
 10
645.1920262015
 20
498.6343549942
 30
0.0
 11
645.1920262015
 21
511.6343549942
 31
0.0
  0
LINE
  5
1C3
330
1F
100
AcDbEntity
  8
0
  6
Continuous
 62
     7
370
    15
100
AcDbLine
 10
645.1920262015
 20
404.1343549942
 30
0.0
 11
645.1920262015
 21
413.6343549942
 31
0.0
  0
ARC
  5
1C4
330
1F
100
AcDbEntity
  8
0
  6
Continuous
 62
     7
370
    15
100
AcDbCircle
 10
494.1920262015
 20
404.1343549942
 30
0.0
 40
15.0
100
AcDbArc
 50
180.0
 51
270.0
  0
ARC
  5
1C5
330
1F
100
AcDbEntity
  8
0
  6
Continuous
 62
     7
370
    15
100
AcDbCircle
 10
630.1920262015
 20
404.1343549942
 30
0.0
 40
15.0
100
AcDbArc
 50
270.0
 51
0.0
  0
ARC
  5
1C6
330
1F
100
AcDbEntity
  8
0
  6
Continuous
 62
     7
370
    15
100
AcDbCircle
 10
476.6920262015
 20
498.6343549942
 30
0.0
 40
2.500000000000057
100
AcDbArc
 50
270.0
 51
0.0
  0
ARC
  5
1C7
330
1F
100
AcDbEntity
  8
0
  6
Continuous
 62
     7
370
    15
100
AcDbCircle
 10
476.6920262015
 20
413.6343549942
 30
0.0
 40
2.500000000000057
100
AcDbArc
 50
0.0
 51
90.0
  0
ARC
  5
1C8
330
1F
100
AcDbEntity
  8
0
  6
Continuous
 62
     7
370
    15
100
AcDbCircle
 10
647.6920262015
 20
498.6343549942
 30
0.0
 40
2.500000000000114
100
AcDbArc
 50
180.0
 51
270.0
  0
ARC
  5
1C9
330
1F
100
AcDbEntity
  8
0
  6
Continuous
 62
     7
370
    15
100
AcDbCircle
 10
647.6920262015
 20
413.6343549942
 30
0.0
 40
2.500000000000114
100
AcDbArc
 50
90.0
 51
180.0
  0
LINE
  5
1CA
330
1F
100
AcDbEntity
  8
0
  6
Continuous
 62
     7
370
    15
100
AcDbLine
 10
655.1920262015
 20
520.6343549942
 30
0.0
 11
469.1920262015
 21
520.6343549942
 31
0.0
  0
LINE
  5
1CB
330
1F
100
AcDbEntity
  8
0
  6
Continuous
 62
     7
370
    15
100
AcDbLine
 10
654.1920262015
 20
521.6343549942
 30
0.0
 11
470.1920262015
 21
521.6343549942
 31
0.0
  0
LINE
  5
1CC
330
1F
100
AcDbEntity
  8
0
  6
Continuous
 62
     7
370
    15
100
AcDbLine
 10
655.1920262015
 20
522.6343549942
 30
0.0
 11
469.1920262015
 21
522.6343549942
 31
0.0
  0
LINE
  5
1CD
330
1F
100
AcDbEntity
  8
0
  6
Continuous
 62
     7
370
    15
100
AcDbLine
 10
652.6920262015
 20
514.1343549942
 30
0.0
 11
471.692026202
 21
514.1343549942
 31
0.0
  0
LINE
  5
1CE
330
1F
100
AcDbEntity
  8
0
  6
Continuous
 62
     7
370
    15
100
AcDbLine
 10
652.6920262015
 20
529.1343549942
 30
0.0
 11
471.6920262015
 21
529.1343549942
 31
0.0
  0
LINE
  5
1CF
330
1F
100
AcDbEntity
  8
0
  6
Continuous
 62
     7
370
    15
100
AcDbLine
 10
554.1091224328
 20
532.1343549942
 30
0.0
 11
554.1091224328
 21
529.1343549942
 31
0.0
  0
LINE
  5
1D0
330
1F
100
AcDbEntity
  8
0
  6
Continuous
 62
     7
370
    15
100
AcDbLine
 10
554.1091224328
 20
532.1343549942
 30
0.0
 11
558.1505743171
 21
532.1343549942
 31
0.0
  0
LINE
  5
1D1
330
1F
100
AcDbEntity
  8
0
  6
Continuous
 62
     7
370
    15
100
AcDbLine
 10
558.1505743171
 20
532.1343549942
 30
0.0
 11
558.1505743171
 21
529.1343549942
 31
0.0
  0
LINE
  5
1D2
330
1F
100
AcDbEntity
  8
0
  6
Continuous
 62
     7
370
    15
100
AcDbLine
 10
566.2334780858
 20
532.1343549942
 30
0.0
 11
566.2334780858
 21
529.1343549942
 31
0.0
  0
LINE
  5
1D3
330
1F
100
AcDbEntity
  8
0
  6
Continuous
 62
     7
370
    15
100
AcDbLine
 10
558.1505743171
 20
532.1343549942
 30
0.0
 11
566.2334780858
 21
532.1343549942
 31
0.0
  0
LINE
  5
1D4
330
1F
100
AcDbEntity
  8
0
  6
Continuous
 62
     7
370
    15
100
AcDbLine
 10
570.2749299701
 20
532.1343549942
 30
0.0
 11
570.2749299701
 21
529.1343549942
 31
0.0
  0
LINE
  5
1D5
330
1F
100
AcDbEntity
  8
0
  6
Continuous
 62
     7
370
    15
100
AcDbLine
 10
566.2334780858
 20
532.1343549942
 30
0.0
 11
570.2749299701
 21
532.1343549942
 31
0.0
  0
SPLINE
  5
1D6
330
1F
100
AcDbEntity
  8
0
  6
Continuous
 62
     7
370
    15
100
AcDbSpline
210
0.0
220
0.0
230
1.0
 70
     8
 71
     3
 72
    30
 73
    26
 74
     0
 42
0.000000001
 43
0.00000001
 40
0.0
 40
0.0
 40
0.0
 40
0.0
 40
0.0625000000000007
 40
0.0625000000000007
 40
0.1250000000000013
 40
0.1250000000000013
 40
0.2500000000000017
 40
0.2500000000000017
 40
0.3125000000000021
 40
0.3125000000000021
 40
0.3750000000000024
 40
0.3750000000000024
 40
0.5000000000000032
 40
0.5000000000000032
 40
0.5625000000000029
 40
0.5625000000000029
 40
0.6250000000000026
 40
0.6250000000000026
 40
0.7500000000000014
 40
0.7500000000000014
 40
0.8125000000000013
 40
0.8125000000000013
 40
0.8750000000000012
 40
0.8750000000000012
 40
1.0
 40
1.0
 40
1.0
 40
1.0
 10
490.1723457218302
 20
426.1343549942465
 30
0.0
 10
490.1723457218302
 20
425.7062647290228
 30
0.0
 10
490.1601359535293
 20
425.2798735555029
 30
0.0
 10
490.1116403494966
 20
424.4304572027418
 30
0.0
 10
490.0753578809005
 20
424.0094351062281
 30
0.0
 10
489.934226670876
 20
422.7747836588731
 30
0.0
 10
489.7969548679953
 20
421.9820014093694
 30
0.0
 10
489.5328335845218
 20
420.836084620038
 30
0.0
 10
489.4343126421078
 20
420.4590487560802
 30
0.0
 10
489.2221419179367
 20
419.7328448717838
 30
0.0
 10
489.108799724587
 20
419.3840421720296
 30
0.0
 10
488.7496230396362
 20
418.3778313546146
 30
0.0
 10
488.4848120305202
 20
417.7602289784136
 30
0.0
 10
488.0560450044736
 20
416.9109673756785
 30
0.0
 10
487.9071325611225
 20
416.639865159086
 30
0.0
 10
487.6056979762652
 20
416.1344943810174
 30
0.0
 10
487.4526146071727
 20
415.8989226129847
 30
0.0
 10
486.9876828503656
 20
415.2417463014542
 30
0.0
 10
486.6702445485262
 20
414.8691762556558
 30
0.0
 10
486.1864877852701
 20
414.4109338678782
 30
0.0
 10
486.0243357046626
 20
414.2756788715531
 30
0.0
 10
485.704622409295
 20
414.0446986761897
 30
0.0
 10
485.5462364421576
 20
413.9481570727961
 30
0.0
 10
485.0759181721409
 20
413.7150358458089
 30
0.0
 10
484.768850914757
 20
413.6343549942465
 30
0.0
 10
484.4690430406379
 20
413.6343549942465
 30
0.0
  0
LINE
  5
1D7
330
1F
100
AcDbEntity
  8
0
  6
Continuous
 62
     7
370
    15
100
AcDbLine
 10
490.1723457218
 20
486.1343549942
 30
0.0
 11
490.1723457218
 21
426.1343549942
 31
0.0
  0
SPLINE
  5
1D8
330
1F
100
AcDbEntity
  8
0
  6
Continuous
 62
     7
370
    15
100
AcDbSpline
210
0.0
220
0.0
230
1.0
 70
     8
 71
     3
 72
    28
 73
    24
 74
     0
 42
0.000000001
 43
0.00000001
 40
0.0
 40
0.0
 40
0.0
 40
0.0
 40
0.1250000000000014
 40
0.1250000000000014
 40
0.1875000000000021
 40
0.1875000000000021
 40
0.2500000000000028
 40
0.2500000000000028
 40
0.3750000000000029
 40
0.3750000000000029
 40
0.4375000000000025
 40
0.4375000000000025
 40
0.5000000000000021
 40
0.5000000000000021
 40
0.6250000000000014
 40
0.6250000000000014
 40
0.7500000000000008
 40
0.7500000000000008
 40
0.8125000000000007
 40
0.8125000000000007
 40
0.8750000000000006
 40
0.8750000000000006
 40
1.0
 40
1.0
 40
1.0
 40
1.0
 10
484.4690430406379
 20
498.6343549942465
 30
0.0
 10
484.7683515841075
 20
498.6343549942465
 30
0.0
 10
485.0754846939905
 20
498.5539254968166
 30
0.0
 10
485.5468084986602
 20
498.3202510988802
 30
0.0
 10
485.7056814773555
 20
498.2233736602245
 30
0.0
 10
486.0266899800814
 20
497.9912014007081
 30
0.0
 10
486.1886746901716
 20
497.8557968221717
 30
0.0
 10
486.6695904660547
 20
497.3999677142376
 30
0.0
 10
486.9866803486901
 20
497.0283857271443
 30
0.0
 10
487.4531611186639
 20
496.3690123796169
 30
0.0
 10
487.6076820793429
 20
496.1311108638816
 30
0.0
 10
487.90991148066
 20
495.6239605963293
 30
0.0
 10
488.0568235794292
 20
495.3562171325195
 30
0.0
 10
488.483712138255
 20
494.5106262507495
 30
0.0
 10
488.7502298688771
 20
493.8904421036349
 30
0.0
 10
489.2350975422104
 20
492.5295701529222
 30
0.0
 10
489.4463742689595
 20
491.8086029036385
 30
0.0
 10
489.7098547659299
 20
490.6641643266544
 30
0.0
 10
489.7887883551896
 20
490.271735009664
 30
0.0
 10
489.9265977536339
 20
489.4658629468273
 30
0.0
 10
489.9843740302157
 20
489.0589133194314
 30
0.0
 10
490.1239853040359
 20
487.8261762578904
 30
0.0
 10
490.1723457218302
 20
486.9886187803722
 30
0.0
 10
490.1723457218302
 20
486.1343549942465
 30
0.0
  0
SPLINE
  5
1D9
330
1F
100
AcDbEntity
  8
0
  6
Continuous
 62
     7
370
    15
100
AcDbSpline
210
0.0
220
0.0
230
1.0
 70
     8
 71
     3
 72
    30
 73
    26
 74
     0
 42
0.000000001
 43
0.00000001
 40
0.0
 40
0.0
 40
0.0
 40
0.0
 40
0.0624999999999996
 40
0.0624999999999996
 40
0.1249999999999992
 40
0.1249999999999992
 40
0.2499999999999993
 40
0.2499999999999993
 40
0.3124999999999989
 40
0.3124999999999989
 40
0.3749999999999986
 40
0.3749999999999986
 40
0.4999999999999979
 40
0.4999999999999979
 40
0.5624999999999979
 40
0.5624999999999979
 40
0.6249999999999979
 40
0.6249999999999979
 40
0.7499999999999986
 40
0.7499999999999986
 40
0.8124999999999987
 40
0.8124999999999987
 40
0.8749999999999988
 40
0.8749999999999988
 40
1.0
 40
1.0
 40
1.0
 40
1.0
 10
634.2117066811085
 20
486.1343549942465
 30
0.0
 10
634.2117066811085
 20
486.5624452594701
 30
0.0
 10
634.2239164494094
 20
486.98883643299
 30
0.0
 10
634.272412053442
 20
487.8382527857511
 30
0.0
 10
634.3086945220382
 20
488.2592748822648
 30
0.0
 10
634.4498257320628
 20
489.4939263296197
 30
0.0
 10
634.5870975349434
 20
490.2867085791236
 30
0.0
 10
634.851218818417
 20
491.4326253684549
 30
0.0
 10
634.9497397608309
 20
491.8096612324127
 30
0.0
 10
635.1619104850021
 20
492.535865116709
 30
0.0
 10
635.2752526783518
 20
492.8846678164633
 30
0.0
 10
635.6344293633025
 20
493.8908786338783
 30
0.0
 10
635.8992403724185
 20
494.5084810100793
 30
0.0
 10
636.328007398465
 20
495.3577426128144
 30
0.0
 10
636.4769198418163
 20
495.6288448294068
 30
0.0
 10
636.7783544266736
 20
496.1342156074755
 30
0.0
 10
636.931437795766
 20
496.3697873755082
 30
0.0
 10
637.3963695525731
 20
497.0269636870387
 30
0.0
 10
637.7138078544125
 20
497.399533732837
 30
0.0
 10
638.1975646176686
 20
497.8577761206147
 30
0.0
 10
638.3597166982761
 20
497.9930311169398
 30
0.0
 10
638.6794299936437
 20
498.2240113123031
 30
0.0
 10
638.8378159607811
 20
498.3205529156969
 30
0.0
 10
639.3081342307978
 20
498.5536741426839
 30
0.0
 10
639.6152014881817
 20
498.6343549942465
 30
0.0
 10
639.9150093623008
 20
498.6343549942465
 30
0.0
  0
LINE
  5
1DA
330
1F
100
AcDbEntity
  8
0
  6
Continuous
 62
     7
370
    15
100
AcDbLine
 10
634.2117066811
 20
426.1343549942
 30
0.0
 11
634.2117066811
 21
486.1343549942
 31
0.0
  0
SPLINE
  5
1DB
330
1F
100
AcDbEntity
  8
0
  6
Continuous
 62
     7
370
    15
100
AcDbSpline
210
0.0
220
0.0
230
1.0
 70
     8
 71
     3
 72
    28
 73
    24
 74
     0
 42
0.000000001
 43
0.00000001
 40
0.0
 40
0.0
 40
0.0
 40
0.0
 40
0.1249999999999992
 40
0.1249999999999992
 40
0.1874999999999988
 40
0.1874999999999988
 40
0.2499999999999983
 40
0.2499999999999983
 40
0.3749999999999978
 40
0.3749999999999978
 40
0.4374999999999972
 40
0.4374999999999972
 40
0.4999999999999966
 40
0.4999999999999966
 40
0.6249999999999973
 40
0.6249999999999973
 40
0.7499999999999982
 40
0.7499999999999982
 40
0.8124999999999986
 40
0.8124999999999986
 40
0.8749999999999989
 40
0.8749999999999989
 40
1.0
 40
1.0
 40
1.0
 40
1.0
 10
639.9150093623008
 20
413.6343549942465
 30
0.0
 10
639.6157008188311
 20
413.6343549942465
 30
0.0
 10
639.3085677089482
 20
413.7147844916763
 30
0.0
 10
638.8372439042786
 20
413.9484588896127
 30
0.0
 10
638.6783709255832
 20
414.0453363282684
 30
0.0
 10
638.3573624228574
 20
414.2775085877848
 30
0.0
 10
638.1953777127671
 20
414.4129131663212
 30
0.0
 10
637.714461936884
 20
414.8687422742552
 30
0.0
 10
637.3973720542486
 20
415.2403242613486
 30
0.0
 10
636.9308912842748
 20
415.8996976088759
 30
0.0
 10
636.7763703235958
 20
416.1375991246113
 30
0.0
 10
636.4741409222788
 20
416.6447493921636
 30
0.0
 10
636.3272288235095
 20
416.9124928559734
 30
0.0
 10
635.9003402646837
 20
417.7580837377434
 30
0.0
 10
635.6338225340616
 20
418.378267884858
 30
0.0
 10
635.1489548607283
 20
419.7391398355707
 30
0.0
 10
634.9376781339793
 20
420.4601070848543
 30
0.0
 10
634.6741976370088
 20
421.6045456618385
 30
0.0
 10
634.5952640477491
 20
421.9969749788289
 30
0.0
 10
634.4574546493049
 20
422.8028470416656
 30
0.0
 10
634.3996783727231
 20
423.2097966690614
 30
0.0
 10
634.2600670989028
 20
424.4425337306025
 30
0.0
 10
634.2117066811085
 20
425.2800912081207
 30
0.0
 10
634.2117066811085
 20
426.1343549942465
 30
0.0
  0
LINE
  5
1DC
330
1F
100
AcDbEntity
  8
0
  6
Continuous
 62
     7
370
    15
100
AcDbLine
 10
630.1920262015
 20
389.1343549942
 30
0.0
 11
494.1920262015
 21
389.1343549942
 31
0.0
  0
LINE
  5
1DD
330
1F
100
AcDbEntity
  8
0
  6
Continuous
 62
     7
370
    15
100
AcDbLine
 10
484.8270901301
 20
532.1343549942
 30
0.0
 11
484.8270901301
 21
529.1343549942
 31
0.0
  0
LINE
  5
1DE
330
1F
100
AcDbEntity
  8
0
  6
Continuous
 62
     7
370
    15
100
AcDbLine
 10
488.8685420144
 20
532.1343549942
 30
0.0
 11
488.8685420144
 21
529.1343549942
 31
0.0
  0
LINE
  5
1DF
330
1F
100
AcDbEntity
  8
0
  6
Continuous
 62
     7
370
    15
100
AcDbLine
 10
484.8270901301
 20
532.1343549942
 30
0.0
 11
488.8685420144
 21
532.1343549942
 31
0.0
  0
LINE
  5
1E0
330
1F
100
AcDbEntity
  8
0
  6
Continuous
 62
     7
370
    15
100
AcDbLine
 10
496.951445783
 20
532.1343549942
 30
0.0
 11
496.951445783
 21
529.1343549942
 31
0.0
  0
LINE
  5
1E1
330
1F
100
AcDbEntity
  8
0
  6
Continuous
 62
     7
370
    15
100
AcDbLine
 10
488.8685420144
 20
532.1343549942
 30
0.0
 11
496.951445783
 21
532.1343549942
 31
0.0
  0
LINE
  5
1E2
330
1F
100
AcDbEntity
  8
0
  6
Continuous
 62
     7
370
    15
100
AcDbLine
 10
500.9928976674
 20
532.1343549942
 30
0.0
 11
500.9928976674
 21
529.1343549942
 31
0.0
  0
LINE
  5
1E3
330
1F
100
AcDbEntity
  8
0
  6
Continuous
 62
     7
370
    15
100
AcDbLine
 10
496.951445783
 20
532.1343549942
 30
0.0
 11
500.9928976674
 21
532.1343549942
 31
0.0
  0
LINE
  5
1E4
330
1F
100
AcDbEntity
  8
0
  6
Continuous
 62
     7
370
    15
100
AcDbLine
 10
623.3911547356
 20
532.1343549942
 30
0.0
 11
623.3911547356
 21
529.1343549942
 31
0.0
  0
LINE
  5
1E5
330
1F
100
AcDbEntity
  8
0
  6
Continuous
 62
     7
370
    15
100
AcDbLine
 10
623.3911547356
 20
532.1343549942
 30
0.0
 11
627.4326066199
 21
532.1343549942
 31
0.0
  0
LINE
  5
1E6
330
1F
100
AcDbEntity
  8
0
  6
Continuous
 62
     7
370
    15
100
AcDbLine
 10
627.4326066199
 20
532.1343549942
 30
0.0
 11
627.4326066199
 21
529.1343549942
 31
0.0
  0
LINE
  5
1E7
330
1F
100
AcDbEntity
  8
0
  6
Continuous
 62
     7
370
    15
100
AcDbLine
 10
635.5155103886
 20
532.1343549942
 30
0.0
 11
635.5155103886
 21
529.1343549942
 31
0.0
  0
LINE
  5
1E8
330
1F
100
AcDbEntity
  8
0
  6
Continuous
 62
     7
370
    15
100
AcDbLine
 10
627.4326066199
 20
532.1343549942
 30
0.0
 11
635.5155103886
 21
532.1343549942
 31
0.0
  0
LINE
  5
1E9
330
1F
100
AcDbEntity
  8
0
  6
Continuous
 62
     7
370
    15
100
AcDbLine
 10
639.5569622729
 20
532.1343549942
 30
0.0
 11
639.5569622729
 21
529.1343549942
 31
0.0
  0
LINE
  5
1EA
330
1F
100
AcDbEntity
  8
0
  6
Continuous
 62
     7
370
    15
100
AcDbLine
 10
635.5155103886
 20
532.1343549942
 30
0.0
 11
639.5569622729
 21
532.1343549942
 31
0.0
  0
ARC
  5
1EB
330
1F
100
AcDbEntity
  8
0
  6
Continuous
 62
     7
370
    15
100
AcDbCircle
 10
482.0458182636
 20
413.7113017471
 30
0.0
 40
2.42444614764963
100
AcDbArc
 50
358.1812486654
 51
88.0577183784
  0
SPLINE
  5
1EC
330
1F
100
AcDbEntity
  8
0
  6
Continuous
 62
     7
370
    15
100
AcDbSpline
210
0.0
220
0.0
230
1.0
 70
     8
 71
     3
 72
    30
 73
    26
 74
     0
 42
0.000000001
 43
0.00000001
 40
0.0
 40
0.0
 40
0.0
 40
0.0
 40
0.1249999999999981
 40
0.1249999999999981
 40
0.1874999999999976
 40
0.1874999999999976
 40
0.2499999999999971
 40
0.2499999999999971
 40
0.3749999999999976
 40
0.3749999999999976
 40
0.4374999999999983
 40
0.4374999999999983
 40
0.4999999999999991
 40
0.4999999999999991
 40
0.6250000000000006
 40
0.6250000000000006
 40
0.6875000000000008
 40
0.6875000000000008
 40
0.7500000000000011
 40
0.7500000000000011
 40
0.8750000000000006
 40
0.8750000000000006
 40
0.9375000000000002
 40
0.9375000000000002
 40
1.0
 40
1.0
 40
1.0
 40
1.0
 10
482.1279893309742
 20
416.1343549942465
 30
0.0
 10
482.4294991151407
 20
416.1343549942465
 30
0.0
 10
482.7379007277834
 20
416.1958943023268
 30
0.0
 10
483.2097353976563
 20
416.3733840749309
 30
0.0
 10
483.3685474562656
 20
416.4468557849599
 30
0.0
 10
483.6889863943891
 20
416.6224926147667
 30
0.0
 10
483.8511759285141
 20
416.7250688072983
 30
0.0
 10
484.3375558070131
 20
417.0743423495403
 30
0.0
 10
484.6579686214181
 20
417.3591239245995
 30
0.0
 10
485.1295400934056
 20
417.8637022214901
 30
0.0
 10
485.2852027381282
 20
418.0448928518511
 30
0.0
 10
485.5926197625892
 20
418.4344552569041
 30
0.0
 10
485.7451456648051
 20
418.6440307824833
 30
0.0
 10
486.1881520128733
 20
419.3060271181349
 30
0.0
 10
486.4644824871639
 20
419.7907059259146
 30
0.0
 10
486.8432195641297
 20
420.5876805322926
 30
0.0
 10
486.9634593956067
 20
420.865087417523
 30
0.0
 10
487.1899598133342
 20
421.4455693335956
 30
0.0
 10
487.2965299378817
 20
421.7500673270584
 30
0.0
 10
487.5843136802864
 20
422.6822790173831
 30
0.0
 10
487.7367015948967
 20
423.3344551832142
 30
0.0
 10
487.8947757906021
 20
424.3645691040398
 30
0.0
 10
487.935370795073
 20
424.7161742011589
 30
0.0
 10
487.9894315141797
 20
425.4226176853911
 30
0.0
 10
488.0030782375037
 20
425.7775951665519
 30
0.0
 10
488.0030782375037
 20
426.1343549942465
 30
0.0
  0
LINE
  5
1ED
330
1F
100
AcDbEntity
  8
0
  6
Continuous
 62
     7
370
    15
100
AcDbLine
 10
490.1723457218
 20
426.1343549942
 30
0.0
 11
488.0030782375
 21
426.1343549942
 31
0.0
  0
ARC
  5
1EE
330
1F
100
AcDbEntity
  8
0
  6
Continuous
 62
     7
370
    15
100
AcDbCircle
 10
642.3382341393
 20
498.5574082414
 30
0.0
 40
2.424446147649925
100
AcDbArc
 50
178.1812486654
 51
268.0577183784
  0
SPLINE
  5
1EF
330
1F
100
AcDbEntity
  8
0
  6
Continuous
 62
     7
370
    15
100
AcDbSpline
210
0.0
220
0.0
230
1.0
 70
     8
 71
     3
 72
    30
 73
    26
 74
     0
 42
0.000000001
 43
0.00000001
 40
0.0
 40
0.0
 40
0.0
 40
0.0
 40
0.124999999999998
 40
0.124999999999998
 40
0.1874999999999977
 40
0.1874999999999977
 40
0.2499999999999973
 40
0.2499999999999973
 40
0.3749999999999963
 40
0.3749999999999963
 40
0.4374999999999963
 40
0.4374999999999963
 40
0.4999999999999963
 40
0.4999999999999963
 40
0.6249999999999982
 40
0.6249999999999982
 40
0.6874999999999987
 40
0.6874999999999987
 40
0.7499999999999991
 40
0.7499999999999991
 40
0.8749999999999996
 40
0.8749999999999996
 40
0.9374999999999998
 40
0.9374999999999998
 40
1.0
 40
1.0
 40
1.0
 40
1.0
 10
642.2560630719645
 20
496.1343549942465
 30
0.0
 10
641.9545532877979
 20
496.1343549942464
 30
0.0
 10
641.6461516751554
 20
496.0728156861661
 30
0.0
 10
641.1743170052824
 20
495.895325913562
 30
0.0
 10
641.0155049466731
 20
495.821854203533
 30
0.0
 10
640.6950660085496
 20
495.6462173737262
 30
0.0
 10
640.5328764744246
 20
495.5436411811945
 30
0.0
 10
640.0464965959256
 20
495.1943676389525
 30
0.0
 10
639.7260837815206
 20
494.9095860638934
 30
0.0
 10
639.254512309533
 20
494.4050077670027
 30
0.0
 10
639.0988496648105
 20
494.2238171366417
 30
0.0
 10
638.7914326403494
 20
493.8342547315887
 30
0.0
 10
638.6389067381335
 20
493.6246792060096
 30
0.0
 10
638.1959003900654
 20
492.962682870358
 30
0.0
 10
637.9195699157747
 20
492.4780040625783
 30
0.0
 10
637.540832838809
 20
491.6810294562003
 30
0.0
 10
637.4205930073321
 20
491.4036225709699
 30
0.0
 10
637.1940925896045
 20
490.8231406548973
 30
0.0
 10
637.087522465057
 20
490.5186426614344
 30
0.0
 10
636.7997387226523
 20
489.5864309711098
 30
0.0
 10
636.647350808042
 20
488.9342548052787
 30
0.0
 10
636.4892766123365
 20
487.9041408844531
 30
0.0
 10
636.4486816078656
 20
487.5525357873339
 30
0.0
 10
636.3946208887589
 20
486.8460923031017
 30
0.0
 10
636.380974165435
 20
486.4911148219409
 30
0.0
 10
636.380974165435
 20
486.1343549942465
 30
0.0
  0
LINE
  5
1F0
330
1F
100
AcDbEntity
  8
0
  6
Continuous
 62
     7
370
    15
100
AcDbLine
 10
634.2117066811
 20
486.1343549942
 30
0.0
 11
636.3809741654
 21
486.1343549942
 31
0.0
  0
LINE
  5
1F1
330
1F
100
AcDbEntity
  8
0
  6
Continuous
 62
     7
370
    15
100
AcDbLine
 10
490.1723457218
 20
486.1343549942
 30
0.0
 11
488.0030782375
 21
486.1343549942
 31
0.0
  0
SPLINE
  5
1F2
330
1F
100
AcDbEntity
  8
0
  6
Continuous
 62
     7
370
    15
100
AcDbSpline
210
0.0
220
0.0
230
1.0
 70
     8
 71
     3
 72
    28
 73
    24
 74
     0
 42
0.000000001
 43
0.00000001
 40
0.0
 40
0.0
 40
0.0
 40
0.0
 40
0.1249999999999998
 40
0.1249999999999998
 40
0.1875000000000005
 40
0.1875000000000005
 40
0.2500000000000011
 40
0.2500000000000011
 40
0.3125000000000017
 40
0.3125000000000017
 40
0.3750000000000024
 40
0.3750000000000024
 40
0.5000000000000021
 40
0.5000000000000021
 40
0.6250000000000018
 40
0.6250000000000018
 40
0.7500000000000016
 40
0.7500000000000016
 40
0.8125000000000013
 40
0.8125000000000013
 40
0.8750000000000011
 40
0.8750000000000011
 40
1.0
 40
1.0
 40
1.0
 40
1.0
 10
488.0030782375037
 20
486.1343549942465
 30
0.0
 10
488.0030782375037
 20
486.8476174975317
 30
0.0
 10
487.948874416419
 20
487.5433150775201
 30
0.0
 10
487.7943187897643
 20
488.5627048895936
 30
0.0
 10
487.7302774081728
 20
488.8994563891864
 30
0.0
 10
487.5791153083389
 20
489.5604796274386
 30
0.0
 10
487.4931885165146
 20
489.8799839449961
 30
0.0
 10
487.3030974706529
 20
490.4989011285857
 30
0.0
 10
487.1989255684128
 20
490.7983064748011
 30
0.0
 10
486.9740749549543
 20
491.3781186245691
 30
0.0
 10
486.8529389266986
 20
491.659464486685
 30
0.0
 10
486.4696528225235
 20
492.4692456010418
 30
0.0
 10
486.1920410856098
 20
492.9559927966219
 30
0.0
 10
485.6042429667941
 20
493.8360966608773
 30
0.0
 10
485.2916691629244
 20
494.2310564852808
 30
0.0
 10
484.6605701876366
 20
494.9072710436386
 30
0.0
 10
484.3402127398712
 20
495.1919986967563
 30
0.0
 10
483.855915576419
 20
495.5404637827187
 30
0.0
 10
483.69317467415
 20
495.6437259889941
 30
0.0
 10
483.371166341977
 20
495.8206103960308
 30
0.0
 10
483.2117105783526
 20
495.8944966804452
 30
0.0
 10
482.7383493275346
 20
496.0728182012547
 30
0.0
 10
482.4294671325885
 20
496.1343549942465
 30
0.0
 10
482.1279893309742
 20
496.1343549942465
 30
0.0
  0
ARC
  5
1F3
330
1F
100
AcDbEntity
  8
0
  6
Continuous
 62
     7
370
    15
100
AcDbCircle
 10
482.0458182636
 20
498.5574082414
 30
0.0
 40
2.424446147649705
100
AcDbArc
 50
271.9422816216
 51
1.8187513346
  0
LINE
  5
1F4
330
1F
100
AcDbEntity
  8
0
  6
Continuous
 62
     7
370
    15
100
AcDbLine
 10
634.2117066811
 20
426.1343549942
 30
0.0
 11
636.3809741654
 21
426.1343549942
 31
0.0
  0
SPLINE
  5
1F5
330
1F
100
AcDbEntity
  8
0
  6
Continuous
 62
     7
370
    15
100
AcDbSpline
210
0.0
220
0.0
230
1.0
 70
     8
 71
     3
 72
    28
 73
    24
 74
     0
 42
0.000000001
 43
0.00000001
 40
0.0
 40
0.0
 40
0.0
 40
0.0
 40
0.1250000000000003
 40
0.1250000000000003
 40
0.1875000000000009
 40
0.1875000000000009
 40
0.2500000000000016
 40
0.2500000000000016
 40
0.3125000000000022
 40
0.3125000000000022
 40
0.3750000000000028
 40
0.3750000000000028
 40
0.5000000000000024
 40
0.5000000000000024
 40
0.6250000000000021
 40
0.6250000000000021
 40
0.7500000000000017
 40
0.7500000000000017
 40
0.8125000000000016
 40
0.8125000000000016
 40
0.8750000000000013
 40
0.8750000000000013
 40
1.0
 40
1.0
 40
1.0
 40
1.0
 10
636.380974165435
 20
426.1343549942465
 30
0.0
 10
636.3809741654351
 20
425.4210924909611
 30
0.0
 10
636.4351779865198
 20
424.7253949109727
 30
0.0
 10
636.5897336131744
 20
423.7060050988993
 30
0.0
 10
636.653774994766
 20
423.3692535993064
 30
0.0
 10
636.8049370945998
 20
422.7082303610542
 30
0.0
 10
636.8908638864241
 20
422.3887260434968
 30
0.0
 10
637.0809549322857
 20
421.7698088599072
 30
0.0
 10
637.1851268345259
 20
421.4704035136918
 30
0.0
 10
637.4099774479845
 20
420.8905913639238
 30
0.0
 10
637.5311134762402
 20
420.6092455018079
 30
0.0
 10
637.9143995804152
 20
419.7994643874511
 30
0.0
 10
638.1920113173289
 20
419.3127171918709
 30
0.0
 10
638.7798094361447
 20
418.4326133276156
 30
0.0
 10
639.0923832400143
 20
418.037653503212
 30
0.0
 10
639.7234822153022
 20
417.3614389448543
 30
0.0
 10
640.0438396630675
 20
417.0767112917365
 30
0.0
 10
640.5281368265198
 20
416.7282462057741
 30
0.0
 10
640.6908777287887
 20
416.6249839994988
 30
0.0
 10
641.0128860609617
 20
416.448099592462
 30
0.0
 10
641.1723418245862
 20
416.3742133080476
 30
0.0
 10
641.6457030754041
 20
416.1958917872382
 30
0.0
 10
641.9545852703502
 20
416.1343549942465
 30
0.0
 10
642.2560630719645
 20
416.1343549942465
 30
0.0
  0
ARC
  5
1F6
330
1F
100
AcDbEntity
  8
0
  6
Continuous
 62
     7
370
    15
100
AcDbCircle
 10
642.3382341393
 20
413.7113017471
 30
0.0
 40
2.424446147649928
100
AcDbArc
 50
91.9422816216
 51
181.8187513346
  0
LINE
  5
1F7
330
1F
100
AcDbEntity
  8
0
  6
Continuous
 62
     7
370
    15
100
AcDbLine
 10
488.0030782375
 20
426.1343549942
 30
0.0
 11
488.0030782375
 21
486.1343549942
 31
0.0
  0
LINE
  5
1F8
330
1F
100
AcDbEntity
  8
0
  6
Continuous
 62
     7
370
    15
100
AcDbLine
 10
636.3809741654
 20
486.1343549942
 30
0.0
 11
636.3809741654
 21
426.1343549942
 31
0.0
  0
LINE
  5
1F9
330
1F
100
AcDbEntity
  8
0
  6
Continuous
 62
     7
370
    15
100
AcDbLine
 10
469.1920262015
 20
486.1343549942
 30
0.0
 11
469.1920262015
 21
496.1343549942
 31
0.0
  0
LINE
  5
1FA
330
1F
100
AcDbEntity
  8
0
  6
Continuous
 62
     7
370
    15
100
AcDbLine
 10
469.1920262015
 20
496.1343549942
 30
0.0
 11
482.127989331
 21
496.1343549942
 31
0.0
  0
LINE
  5
1FB
330
1F
100
AcDbEntity
  8
0
  6
Continuous
 62
     7
370
    15
100
AcDbLine
 10
488.0030782375
 20
486.1343549942
 30
0.0
 11
469.1920262015
 21
486.1343549942
 31
0.0
  0
LINE
  5
1FC
330
1F
100
AcDbEntity
  8
0
  6
Continuous
 62
     7
370
    15
100
AcDbLine
 10
469.1920262015
 20
426.1343549942
 30
0.0
 11
488.0030782375
 21
426.1343549942
 31
0.0
  0
LINE
  5
1FD
330
1F
100
AcDbEntity
  8
0
  6
Continuous
 62
     7
370
    15
100
AcDbLine
 10
469.1920262015
 20
486.1343549942
 30
0.0
 11
469.1920262015
 21
426.1343549942
 31
0.0
  0
LINE
  5
1FE
330
1F
100
AcDbEntity
  8
0
  6
Continuous
 62
     7
370
    15
100
AcDbLine
 10
482.127989331
 20
416.1343549942
 30
0.0
 11
469.1920262015
 21
416.1343549942
 31
0.0
  0
LINE
  5
1FF
330
1F
100
AcDbEntity
  8
0
  6
Continuous
 62
     7
370
    15
100
AcDbLine
 10
469.1920262015
 20
416.1343549942
 30
0.0
 11
469.1920262015
 21
426.1343549942
 31
0.0
  0
LINE
  5
200
330
1F
100
AcDbEntity
  8
0
  6
Continuous
 62
     7
370
    15
100
AcDbLine
 10
655.1920262015
 20
486.1343549942
 30
0.0
 11
655.1920262015
 21
426.1343549942
 31
0.0
  0
LINE
  5
201
330
1F
100
AcDbEntity
  8
0
  6
Continuous
 62
     7
370
    15
100
AcDbLine
 10
636.3809741654
 20
426.1343549942
 30
0.0
 11
655.1920262015
 21
426.1343549942
 31
0.0
  0
LINE
  5
202
330
1F
100
AcDbEntity
  8
0
  6
Continuous
 62
     7
370
    15
100
AcDbLine
 10
655.1920262015
 20
486.1343549942
 30
0.0
 11
636.3809741654
 21
486.1343549942
 31
0.0
  0
LINE
  5
203
330
1F
100
AcDbEntity
  8
0
  6
Continuous
 62
     7
370
    15
100
AcDbLine
 10
655.1920262015
 20
496.1343549942
 30
0.0
 11
655.1920262015
 21
486.1343549942
 31
0.0
  0
LINE
  5
204
330
1F
100
AcDbEntity
  8
0
  6
Continuous
 62
     7
370
    15
100
AcDbLine
 10
642.256063072
 20
496.1343549942
 30
0.0
 11
655.1920262015
 21
496.1343549942
 31
0.0
  0
LINE
  5
205
330
1F
100
AcDbEntity
  8
0
  6
Continuous
 62
     7
370
    15
100
AcDbLine
 10
655.1920262015
 20
426.1343549942
 30
0.0
 11
655.1920262015
 21
416.1343549942
 31
0.0
  0
LINE
  5
206
330
1F
100
AcDbEntity
  8
0
  6
Continuous
 62
     7
370
    15
100
AcDbLine
 10
655.1920262015
 20
416.1343549942
 30
0.0
 11
642.256063072
 21
416.1343549942
 31
0.0
  0
LINE
  5
207
330
1F
100
AcDbEntity
  8
0
  6
Continuous
 62
     8
370
    15
100
AcDbLine
 10
469.1920262015
 20
516.6343549942
 30
0.0
 11
655.1920262015
 21
516.6343549942
 31
0.0
  0
LINE
  5
208
330
1F
100
AcDbEntity
  8
0
  6
Continuous
 62
     8
370
    15
100
AcDbLine
 10
655.1920262015
 20
526.6343549942
 30
0.0
 11
469.1920262015
 21
526.6343549942
 31
0.0
  0
LINE
  5
209
330
1F
100
AcDbEntity
  8
0
  6
Continuous
 62
     8
370
    15
100
AcDbLine
 10
645.1920262015
 20
511.6343549942
 30
0.0
 11
479.1920262015
 21
511.6343549942
 31
0.0
  0
LINE
  5
20A
330
1F
100
AcDbEntity
  8
0
  6
Continuous
 62
     8
370
    15
100
AcDbLine
 10
479.1920262015
 20
404.1343549942
 30
0.0
 11
645.1920262015
 21
404.1343549942
 31
0.0
  0
LINE
  5
20B
330
1F
100
AcDbEntity
  8
0
  6
Continuous
 62
     8
370
    15
100
AcDbLine
 10
479.1920262015
 20
498.6343549942
 30
0.0
 11
484.4690430406
 21
498.6343549942
 31
0.0
  0
LINE
  5
20C
330
1F
100
AcDbEntity
  8
0
  6
Continuous
 62
     8
370
    15
100
AcDbLine
 10
484.4690430406
 20
413.6343549942
 30
0.0
 11
479.1920262015
 21
413.6343549942
 31
0.0
  0
LINE
  5
20D
330
1F
100
AcDbEntity
  8
0
  6
Continuous
 62
     8
370
    15
100
AcDbLine
 10
645.1920262015
 20
413.6343549942
 30
0.0
 11
639.9150093623
 21
413.6343549942
 31
0.0
  0
LINE
  5
20E
330
1F
100
AcDbEntity
  8
0
  6
Continuous
 62
     8
370
    15
100
AcDbLine
 10
639.9150093623
 20
498.6343549942
 30
0.0
 11
645.1920262015
 21
498.6343549942
 31
0.0
  0
LINE
  5
20F
330
1F
100
AcDbEntity
  8
0
  6
Continuous
 62
     7
370
    15
100
AcDbLine
 10
150.1354583246
 20
279.1769933086
 30
0.0
 11
143.1354583246
 21
283.218445193
 31
0.0
  0
LINE
  5
210
330
1F
100
AcDbEntity
  8
0
  6
Continuous
 62
     7
370
    15
100
AcDbLine
 10
150.1354583246
 20
271.09408954
 30
0.0
 11
150.1354583246
 21
279.1769933086
 31
0.0
  0
LINE
  5
211
330
1F
100
AcDbEntity
  8
0
  6
Continuous
 62
     7
370
    15
100
AcDbLine
 10
143.1354583246
 20
267.0526376557
 30
0.0
 11
150.1354583246
 21
271.09408954
 31
0.0
  0
LINE
  5
212
330
1F
100
AcDbEntity
  8
0
  6
Continuous
 62
     7
370
    15
100
AcDbLine
 10
136.1354583246
 20
271.09408954
 30
0.0
 11
143.1354583246
 21
267.0526376557
 31
0.0
  0
LINE
  5
213
330
1F
100
AcDbEntity
  8
0
  6
Continuous
 62
     7
370
    15
100
AcDbLine
 10
136.1354583246
 20
279.1769933086
 30
0.0
 11
136.1354583246
 21
271.09408954
 31
0.0
  0
LINE
  5
214
330
1F
100
AcDbEntity
  8
0
  6
Continuous
 62
     7
370
    15
100
AcDbLine
 10
143.1354583246
 20
283.218445193
 30
0.0
 11
136.1354583246
 21
279.1769933086
 31
0.0
  0
LINE
  5
215
330
1F
100
AcDbEntity
  8
0
  6
Continuous
 62
     7
370
    15
100
AcDbLine
 10
230.1354583246
 20
271.09408954
 30
0.0
 11
230.1354583246
 21
279.1769933086
 31
0.0
  0
LINE
  5
216
330
1F
100
AcDbEntity
  8
0
  6
Continuous
 62
     7
370
    15
100
AcDbLine
 10
223.1354583246
 20
267.0526376557
 30
0.0
 11
230.1354583246
 21
271.09408954
 31
0.0
  0
LINE
  5
217
330
1F
100
AcDbEntity
  8
0
  6
Continuous
 62
     7
370
    15
100
AcDbLine
 10
216.1354583246
 20
271.09408954
 30
0.0
 11
223.1354583246
 21
267.0526376557
 31
0.0
  0
LINE
  5
218
330
1F
100
AcDbEntity
  8
0
  6
Continuous
 62
     7
370
    15
100
AcDbLine
 10
216.1354583246
 20
279.1769933086
 30
0.0
 11
216.1354583246
 21
271.09408954
 31
0.0
  0
LINE
  5
219
330
1F
100
AcDbEntity
  8
0
  6
Continuous
 62
     7
370
    15
100
AcDbLine
 10
223.1354583246
 20
283.218445193
 30
0.0
 11
216.1354583246
 21
279.1769933086
 31
0.0
  0
LINE
  5
21A
330
1F
100
AcDbEntity
  8
0
  6
Continuous
 62
     7
370
    15
100
AcDbLine
 10
230.1354583246
 20
279.1769933086
 30
0.0
 11
223.1354583246
 21
283.218445193
 31
0.0
  0
LINE
  5
21B
330
1F
100
AcDbEntity
  8
0
  6
Continuous
 62
     7
370
    15
100
AcDbLine
 10
110.1354583246
 20
201.8120572372
 30
0.0
 11
110.1354583246
 21
209.8949610059
 31
0.0
  0
LINE
  5
21C
330
1F
100
AcDbEntity
  8
0
  6
Continuous
 62
     7
370
    15
100
AcDbLine
 10
103.1354583246
 20
197.7706053529
 30
0.0
 11
110.1354583246
 21
201.8120572372
 31
0.0
  0
LINE
  5
21D
330
1F
100
AcDbEntity
  8
0
  6
Continuous
 62
     7
370
    15
100
AcDbLine
 10
96.1354583246
 20
201.8120572372
 30
0.0
 11
103.1354583246
 21
197.7706053529
 31
0.0
  0
LINE
  5
21E
330
1F
100
AcDbEntity
  8
0
  6
Continuous
 62
     7
370
    15
100
AcDbLine
 10
96.1354583246
 20
209.8949610059
 30
0.0
 11
96.1354583246
 21
201.8120572372
 31
0.0
  0
LINE
  5
21F
330
1F
100
AcDbEntity
  8
0
  6
Continuous
 62
     7
370
    15
100
AcDbLine
 10
103.1354583246
 20
213.9364128902
 30
0.0
 11
96.1354583246
 21
209.8949610059
 31
0.0
  0
LINE
  5
220
330
1F
100
AcDbEntity
  8
0
  6
Continuous
 62
     7
370
    15
100
AcDbLine
 10
110.1354583246
 20
209.8949610059
 30
0.0
 11
103.1354583246
 21
213.9364128902
 31
0.0
  0
LINE
  5
221
330
1F
100
AcDbEntity
  8
0
  6
Continuous
 62
     7
370
    15
100
AcDbLine
 10
263.1354583246
 20
197.7706053529
 30
0.0
 11
270.1354583246
 21
201.8120572372
 31
0.0
  0
LINE
  5
222
330
1F
100
AcDbEntity
  8
0
  6
Continuous
 62
     7
370
    15
100
AcDbLine
 10
256.1354583246
 20
201.8120572372
 30
0.0
 11
263.1354583246
 21
197.7706053529
 31
0.0
  0
LINE
  5
223
330
1F
100
AcDbEntity
  8
0
  6
Continuous
 62
     7
370
    15
100
AcDbLine
 10
256.1354583246
 20
209.8949610059
 30
0.0
 11
256.1354583246
 21
201.8120572372
 31
0.0
  0
LINE
  5
224
330
1F
100
AcDbEntity
  8
0
  6
Continuous
 62
     7
370
    15
100
AcDbLine
 10
270.1354583246
 20
201.8120572372
 30
0.0
 11
270.1354583246
 21
209.8949610059
 31
0.0
  0
LINE
  5
225
330
1F
100
AcDbEntity
  8
0
  6
Continuous
 62
     7
370
    15
100
AcDbLine
 10
263.1354583246
 20
213.9364128902
 30
0.0
 11
256.1354583246
 21
209.8949610059
 31
0.0
  0
LINE
  5
226
330
1F
100
AcDbEntity
  8
0
  6
Continuous
 62
     7
370
    15
100
AcDbLine
 10
270.1354583246
 20
209.8949610059
 30
0.0
 11
263.1354583246
 21
213.9364128902
 31
0.0
  0
LINE
  5
227
330
1F
100
AcDbEntity
  8
0
  6
Continuous
 62
     7
370
    15
100
AcDbLine
 10
216.1354583246
 20
132.5300249345
 30
0.0
 11
223.1354583246
 21
128.4885730502
 31
0.0
  0
LINE
  5
228
330
1F
100
AcDbEntity
  8
0
  6
Continuous
 62
     7
370
    15
100
AcDbLine
 10
216.1354583246
 20
140.6129287031
 30
0.0
 11
216.1354583246
 21
132.5300249345
 31
0.0
  0
LINE
  5
229
330
1F
100
AcDbEntity
  8
0
  6
Continuous
 62
     7
370
    15
100
AcDbLine
 10
223.1354583246
 20
144.6543805875
 30
0.0
 11
216.1354583246
 21
140.6129287031
 31
0.0
  0
LINE
  5
22A
330
1F
100
AcDbEntity
  8
0
  6
Continuous
 62
     7
370
    15
100
AcDbLine
 10
230.1354583246
 20
140.6129287031
 30
0.0
 11
223.1354583246
 21
144.6543805875
 31
0.0
  0
LINE
  5
22B
330
1F
100
AcDbEntity
  8
0
  6
Continuous
 62
     7
370
    15
100
AcDbLine
 10
230.1354583246
 20
132.5300249345
 30
0.0
 11
230.1354583246
 21
140.6129287031
 31
0.0
  0
LINE
  5
22C
330
1F
100
AcDbEntity
  8
0
  6
Continuous
 62
     7
370
    15
100
AcDbLine
 10
223.1354583246
 20
128.4885730502
 30
0.0
 11
230.1354583246
 21
132.5300249345
 31
0.0
  0
LINE
  5
22D
330
1F
100
AcDbEntity
  8
0
  6
Continuous
 62
     7
370
    15
100
AcDbLine
 10
136.1354583246
 20
140.6129287031
 30
0.0
 11
136.1354583246
 21
132.5300249345
 31
0.0
  0
LINE
  5
22E
330
1F
100
AcDbEntity
  8
0
  6
Continuous
 62
     7
370
    15
100
AcDbLine
 10
143.1354583246
 20
144.6543805875
 30
0.0
 11
136.1354583246
 21
140.6129287031
 31
0.0
  0
LINE
  5
22F
330
1F
100
AcDbEntity
  8
0
  6
Continuous
 62
     7
370
    15
100
AcDbLine
 10
150.1354583246
 20
140.6129287031
 30
0.0
 11
143.1354583246
 21
144.6543805875
 31
0.0
  0
LINE
  5
230
330
1F
100
AcDbEntity
  8
0
  6
Continuous
 62
     7
370
    15
100
AcDbLine
 10
150.1354583246
 20
132.5300249345
 30
0.0
 11
150.1354583246
 21
140.6129287031
 31
0.0
  0
LINE
  5
231
330
1F
100
AcDbEntity
  8
0
  6
Continuous
 62
     7
370
    15
100
AcDbLine
 10
143.1354583246
 20
128.4885730502
 30
0.0
 11
150.1354583246
 21
132.5300249345
 31
0.0
  0
LINE
  5
232
330
1F
100
AcDbEntity
  8
0
  6
Continuous
 62
     7
370
    15
100
AcDbLine
 10
136.1354583246
 20
132.5300249345
 30
0.0
 11
143.1354583246
 21
128.4885730502
 31
0.0
  0
CIRCLE
  5
233
330
1F
100
AcDbEntity
  8
0
  6
Continuous
 62
     7
370
    15
100
AcDbCircle
 10
183.1354583246
 20
205.8535091216
 30
0.0
 40
90.50000000000001
  0
CIRCLE
  5
234
330
1F
100
AcDbEntity
  8
0
  6
Continuous
 62
     7
370
    15
100
AcDbCircle
 10
183.1354583246
 20
205.8535091216
 30
0.0
 40
93.00000000000001
  0
LINE
  5
235
330
1F
100
AcDbEntity
  8
0
  6
Continuous
 62
     7
370
    15
100
AcDbLine
 10
143.1354583246
 20
298.8535091216
 30
0.0
 11
153.1354583246
 21
298.8535091216
 31
0.0
  0
LINE
  5
236
330
1F
100
AcDbEntity
  8
0
  6
Continuous
 62
     7
370
    15
100
AcDbLine
 10
143.1354583246
 20
289.8118321158
 30
0.0
 11
143.1354583246
 21
298.8535091216
 31
0.0
  0
LINE
  5
237
330
1F
100
AcDbEntity
  8
0
  6
Continuous
 62
     7
370
    15
100
AcDbLine
 10
223.1354583246
 20
298.8535091216
 30
0.0
 11
223.1354583246
 21
289.8118321158
 31
0.0
  0
LINE
  5
238
330
1F
100
AcDbEntity
  8
0
  6
Continuous
 62
     7
370
    15
100
AcDbLine
 10
213.1354583246
 20
298.8535091216
 30
0.0
 11
223.1354583246
 21
298.8535091216
 31
0.0
  0
LINE
  5
239
330
1F
100
AcDbEntity
  8
0
  6
Continuous
 62
     7
370
    15
100
AcDbLine
 10
213.1354583246
 20
298.8535091216
 30
0.0
 11
153.1354583246
 21
298.8535091216
 31
0.0
  0
LINE
  5
23A
330
1F
100
AcDbEntity
  8
0
  6
Continuous
 62
     7
370
    15
100
AcDbLine
 10
153.1354583246
 20
112.8535091216
 30
0.0
 11
143.1354583246
 21
112.8535091216
 31
0.0
  0
LINE
  5
23B
330
1F
100
AcDbEntity
  8
0
  6
Continuous
 62
     7
370
    15
100
AcDbLine
 10
143.1354583246
 20
112.8535091216
 30
0.0
 11
143.1354583246
 21
121.8951861274
 31
0.0
  0
LINE
  5
23C
330
1F
100
AcDbEntity
  8
0
  6
Continuous
 62
     7
370
    15
100
AcDbLine
 10
223.1354583246
 20
112.8535091216
 30
0.0
 11
213.1354583246
 21
112.8535091216
 31
0.0
  0
LINE
  5
23D
330
1F
100
AcDbEntity
  8
0
  6
Continuous
 62
     7
370
    15
100
AcDbLine
 10
223.1354583246
 20
121.8951861274
 30
0.0
 11
223.1354583246
 21
112.8535091216
 31
0.0
  0
LINE
  5
23E
330
1F
100
AcDbEntity
  8
0
  6
Continuous
 62
     7
370
    15
100
AcDbLine
 10
213.1354583246
 20
112.8535091216
 30
0.0
 11
153.1354583246
 21
112.8535091216
 31
0.0
  0
LINE
  5
23F
330
1F
100
AcDbEntity
  8
0
  6
Continuous
 62
     8
370
    15
100
AcDbLine
 10
153.1354583246
 20
298.8535091216
 30
0.0
 11
153.1354583246
 21
293.8819136283
 31
0.0
  0
LINE
  5
240
330
1F
100
AcDbEntity
  8
0
  6
Continuous
 62
     8
370
    15
100
AcDbLine
 10
213.1354583246
 20
293.8819136283
 30
0.0
 11
213.1354583246
 21
298.8535091216
 31
0.0
  0
LINE
  5
241
330
1F
100
AcDbEntity
  8
0
  6
Continuous
 62
     8
370
    15
100
AcDbLine
 10
153.1354583246
 20
117.8251046148
 30
0.0
 11
153.1354583246
 21
112.8535091216
 31
0.0
  0
LINE
  5
242
330
1F
100
AcDbEntity
  8
0
  6
Continuous
 62
     8
370
    15
100
AcDbLine
 10
213.1354583246
 20
112.8535091216
 30
0.0
 11
213.1354583246
 21
117.8251046148
 31
0.0
  0
SPLINE
  5
243
330
1F
100
AcDbEntity
  8
0
  6
Continuous
 62
     7
370
    15
100
AcDbSpline
210
0.0
220
0.0
230
1.0
 70
     8
 71
     3
 72
    76
 73
    72
 74
     0
 42
0.000000001
 43
0.00000001
 40
0.0
 40
0.0
 40
0.0
 40
0.0
 40
0.0097469429125778
 40
0.0241936954291001
 40
0.0386616231166927
 40
0.0531610940551248
 40
0.0676997894150412
 40
0.0822823177485269
 40
0.0969102103826845
 40
0.1115822517809422
 40
0.1262950480819263
 40
0.1410437120500493
 40
0.1558225471228096
 40
0.1706256412492615
 40
0.1854473204499053
 40
0.2002824496146187
 40
0.2151265954577335
 40
0.229976081140537
 40
0.2448279657407829
 40
0.2596794642525972
 40
0.2745289540734744
 40
0.2893753781242916
 40
0.3042180488446182
 40
0.3190565713335721
 40
0.3338907783101525
 40
0.3487206766826784
 40
0.3635464046586092
 40
0.3783681979655313
 40
0.3931863636877216
 40
0.4080012603149973
 40
0.4228132827655016
 40
0.4376228513303732
 40
0.4524304036683636
 40
0.4672363891381651
 40
0.4820412648905626
 40
0.4968454932504066
 40
0.5116495400012255
 40
0.5264538321286096
 40
0.5412587242205705
 40
0.5560646867933464
 40
0.570872190312094
 40
0.5856817037548813
 40
0.6004936924431837
 40
0.6153086147564358
 40
0.6301269172925544
 40
0.6449490279363641
 40
0.6597753461707981
 40
0.6746062298103919
 40
0.6894419771553425
 40
0.7042828033652888
 40
0.7191288096542975
 40
0.7339799437493558
 40
0.7488359500006558
 40
0.7636963076919426
 40
0.7785601566426744
 40
0.7934262103641091
 40
0.8082921381679814
 40
0.8231550703779483
 40
0.8380116029072208
 40
0.8528575310483151
 40
0.8676878531819499
 40
0.8824968693293839
 40
0.8972784106208784
 40
0.9120262276597221
 40
0.9267345436381207
 40
0.9413987412088969
 40
0.9560161063216527
 40
0.9705865107958376
 40
0.985112895465369
 40
0.9996014303058592
 40
1.0
 40
1.0
 40
1.0
 40
1.0
 10
691.3838628909432
 20
245.5573013958721
 30
0.0
 10
691.3303696191022
 20
246.1084262753177
 30
0.0
 10
691.1975895322545
 20
247.4764190496983
 30
0.0
 10
690.7749599800592
 20
249.6496334165039
 30
0.0
 10
690.1447597564581
 20
252.0726049511884
 30
0.0
 10
689.3256767994665
 20
254.4759160448488
 30
0.0
 10
688.3277656333715
 20
256.8556954579946
 30
0.0
 10
687.149959819173
 20
259.2073384129603
 30
0.0
 10
685.7946596239751
 20
261.5261917310264
 30
0.0
 10
684.26392644284
 20
263.8074116668567
 30
0.0
 10
682.5605834876205
 20
266.0460853806636
 30
0.0
 10
680.6879468996162
 20
268.2373028386835
 30
0.0
 10
678.649879673536
 20
270.3762432516819
 30
0.0
 10
676.4507245300633
 20
272.4582429059798
 30
0.0
 10
674.0952502758855
 20
274.4788442286345
 30
0.0
 10
671.5885896105609
 20
276.4338239178237
 30
0.0
 10
668.9361847693305
 20
278.3192036665455
 30
0.0
 10
666.1437425142092
 20
280.1312482442146
 30
0.0
 10
663.2172337286448
 20
281.8664359963415
 30
0.0
 10
660.162837219453
 20
283.5214726284897
 30
0.0
 10
656.9869151945823
 20
285.093280589905
 30
0.0
 10
653.6959610169985
 20
286.5790008449589
 30
0.0
 10
650.2966305248995
 20
287.9759595129995
 30
0.0
 10
646.7957434527717
 20
289.2816581541381
 30
0.0
 10
643.20027750132
 20
290.4937705810425
 30
0.0
 10
639.5173618573892
 20
291.6101417193058
 30
0.0
 10
635.7542697873652
 20
292.6287880450058
 30
0.0
 10
631.918410128049
 20
293.5478991535986
 30
0.0
 10
628.0173176323883
 20
294.3658400701439
 30
0.0
 10
624.0586422114849
 20
295.0811539759959
 30
0.0
 10
620.05013716319
 20
295.6925650906238
 30
0.0
 10
615.9996465029617
 20
296.1989815037282
 30
0.0
 10
611.915091523121
 20
296.5994978003649
 30
0.0
 10
607.8044567082793
 20
296.8933973604035
 30
0.0
 10
603.6757751315828
 20
297.0801542442756
 30
0.0
 10
599.5371134515457
 20
297.1594346009286
 30
0.0
 10
595.39656045645
 20
297.1310975788863
 30
0.0
 10
591.2622184454996
 20
296.9951964310505
 30
0.0
 10
587.1421766983119
 20
296.7519791677994
 30
0.0
 10
583.044491797857
 20
296.4018872308326
 30
0.0
 10
578.9771654477136
 20
295.9455524796152
 30
0.0
 10
574.9481400319916
 20
295.3837955368705
 30
0.0
 10
570.9652838196932
 20
294.7176232308822
 30
0.0
 10
567.0363766315862
 20
293.9482255217314
 30
0.0
 10
563.1690961011564
 20
293.0769719662229
 30
0.0
 10
559.3710046664756
 20
292.105407801083
 30
0.0
 10
555.6495374389777
 20
291.0352497568476
 30
0.0
 10
552.0119911010863
 20
289.8683817578289
 30
0.0
 10
548.4655139848645
 20
288.6068507190025
 30
0.0
 10
545.017097472812
 20
287.2528627206742
 30
0.0
 10
541.6735688319421
 20
285.8087799275269
 30
0.0
 10
538.4415855319068
 20
284.2771187188796
 30
0.0
 10
535.3276309927745
 20
282.660549606668
 30
0.0
 10
532.3380115364262
 20
280.961899622138
 30
0.0
 10
529.4788540650558
 20
279.1841579321072
 30
0.0
 10
526.7561354141587
 20
277.3305070912638
 30
0.0
 10
524.1756644310398
 20
275.4043382622373
 30
0.0
 10
521.7430559069775
 20
273.4092652569329
 30
0.0
 10
519.4636883415162
 20
271.3491245565777
 30
0.0
 10
517.3426888163882
 20
269.228002520167
 30
0.0
 10
515.3849086780349
 20
267.0502663887407
 30
0.0
 10
513.5948677224657
 20
264.8205787689133
 30
0.0
 10
511.9767072822864
 20
262.5438968105007
 30
0.0
 10
510.5340545614231
 20
260.2254525646119
 30
0.0
 10
509.2701866318376
 20
257.8706954201368
 30
0.0
 10
508.1870950983529
 20
255.485245750068
 30
0.0
 10
507.2887108899361
 20
253.0746770868071
 30
0.0
 10
506.5688153661464
 20
250.6448360785065
 30
0.0
 10
506.0560279302672
 20
248.2001281976229
 30
0.0
 10
505.7792311407301
 20
246.542059786792
 30
0.0
 10
505.7253260867275
 20
245.6993871215002
 30
0.0
 10
505.7238828966944
 20
245.6768264022089
 30
0.0
  0
LINE
  5
244
330
1F
100
AcDbEntity
  8
0
  6
Continuous
 62
     7
370
    15
100
AcDbLine
 10
505.5568546423
 20
242.399975397
 30
0.0
 11
505.5568546423
 21
239.1338121495
 31
0.0
  0
LINE
  5
245
330
1F
100
AcDbEntity
  8
0
  6
Continuous
 62
     7
370
    15
100
AcDbLine
 10
691.5568546423
 20
239.1338121495
 30
0.0
 11
691.5568546423
 21
242.399975397
 31
0.0
  0
LINE
  5
246
330
1F
100
AcDbEntity
  8
0
  6
Continuous
 62
     7
370
    15
100
AcDbLine
 10
532.7852385962
 20
201.1770044999
 30
0.0
 11
533.4924602741
 21
200.7686014046
 31
0.0
  0
LINE
  5
247
330
1F
100
AcDbEntity
  8
0
  6
Continuous
 62
     7
370
    15
100
AcDbLine
 10
663.6212490104
 20
200.7686014046
 30
0.0
 11
664.3284706884
 21
201.1770044999
 31
0.0
  0
LINE
  5
248
330
1F
100
AcDbEntity
  8
0
  6
Continuous
 62
     7
370
    15
100
AcDbLine
 10
505.5568546423
 20
237.5007305257
 30
0.0
 11
505.5568546423
 21
234.2345672782
 31
0.0
  0
LINE
  5
249
330
1F
100
AcDbEntity
  8
0
  6
Continuous
 62
     7
370
    15
100
AcDbLine
 10
691.5568546423
 20
234.2345672782
 30
0.0
 11
691.5568546423
 21
237.5007305257
 31
0.0
  0
SPLINE
  5
24A
330
1F
100
AcDbEntity
  8
0
  6
Continuous
 62
     7
370
    15
100
AcDbSpline
210
0.0
220
0.0
230
1.0
 70
     8
 71
     3
 72
    25
 73
    21
 74
     0
 42
0.000000001
 43
0.00000001
 40
0.0
 40
0.0
 40
0.0
 40
0.0
 40
0.0199760174659458
 40
0.0797582098989304
 40
0.1396121993445292
 40
0.199583914396652
 40
0.2597090146341355
 40
0.3200107847109781
 40
0.3804996114631786
 40
0.4411739365879299
 40
0.5020223425354149
 40
0.563026287733262
 40
0.6241629869392096
 40
0.6854080215389231
 40
0.7467374181698394
 40
0.8081290968714717
 40
0.8695637194314809
 40
0.9310250460660794
 40
0.9892961256322744
 40
0.9999999999999999
 40
0.9999999999999999
 40
0.9999999999999999
 40
0.9999999999999999
 10
505.733979684563
 20
231.0379336717048
 30
0.0
 10
505.7550940762494
 20
230.7648627699086
 30
0.0
 10
505.8393974709018
 20
229.6745730592651
 30
0.0
 10
506.1750839054599
 20
227.7754522002073
 30
0.0
 10
506.741488447028
 20
225.346937931701
 30
0.0
 10
507.5028472933178
 20
222.9369308316676
 30
0.0
 10
508.4418555406401
 20
220.5489841196651
 30
0.0
 10
509.5616528371587
 20
218.1877081084256
 30
0.0
 10
510.8594504293389
 20
215.8576768429758
 30
0.0
 10
512.3334950973201
 20
213.5636967475913
 30
0.0
 10
513.9811038365316
 20
211.3106624077326
 30
0.0
 10
515.7991498312379
 20
209.1034957791514
 30
0.0
 10
517.7839342305557
 20
206.9470538187321
 30
0.0
 10
519.9312710714298
 20
204.8460610056153
 30
0.0
 10
522.236504250887
 20
202.8050336585965
 30
0.0
 10
524.694681622305
 20
200.8283188803609
 30
0.0
 10
527.300199673191
 20
198.9198038394819
 30
0.0
 10
530.0006354392785
 20
197.1158424736923
 30
0.0
 10
532.0362222024534
 20
195.8681969358265
 30
0.0
 10
533.1421666083544
 20
195.2265517365901
 30
0.0
 10
533.3137925291167
 20
195.1269780622407
 30
0.0
  0
SPLINE
  5
24B
330
1F
100
AcDbEntity
  8
0
  6
Continuous
 62
     7
370
    15
100
AcDbSpline
210
0.0
220
0.0
230
1.0
 70
     8
 71
     3
 72
    59
 73
    55
 74
     0
 42
0.000000001
 43
0.00000001
 40
0.0
 40
0.0
 40
0.0
 40
0.0
 40
0.0103169045859197
 40
0.0298668222981697
 40
0.0494131351885461
 40
0.068955070222799
 40
0.0884918578231516
 40
0.1080230841130344
 40
0.1275486103785802
 40
0.1470685074286981
 40
0.1665830032479166
 40
0.1860924419999707
 40
0.2055972524365255
 40
0.2250979239279093
 40
0.2445949885644734
 40
0.264089008022882
 40
0.2835805641211759
 40
0.303070252186366
 40
0.3225586765236924
 40
0.3420464474077907
 40
0.3615341791148192
 40
0.3810223676895954
 40
0.4005115471600698
 40
0.4200023370446085
 40
0.4394953562595589
 40
0.4589912209661499
 40
0.4784905412939949
 40
0.4979939164206126
 40
0.5175019273912796
 40
0.5370151269206456
 40
0.5565340252381231
 40
0.5760590708229838
 40
0.5955906246270211
 40
0.6151289261175733
 40
0.6346740492229419
 40
0.6542258460858603
 40
0.6737838765319026
 40
0.6933473215054615
 40
0.7129148796691263
 40
0.732484642171238
 40
0.7520529261341117
 40
0.7716159232568806
 40
0.7911688153543414
 40
0.8107057210771869
 40
0.8302197361485847
 40
0.8497031140580039
 40
0.8691476330352625
 40
0.8885451788728271
 40
0.9078885375114566
 40
0.9271723376315546
 40
0.9463940227438059
 40
0.9655546844639514
 40
0.984659575889007
 40
1.0
 40
1.0
 40
1.0
 40
1.0
 10
533.3137925291167
 20
195.1269780622407
 30
0.0
 10
533.8388412688051
 20
194.8281884250366
 30
0.0
 10
535.3588259963516
 20
193.9632102792571
 30
0.0
 10
537.9706004868654
 20
192.5938920759389
 30
0.0
 10
541.1832293207021
 20
191.0488926664306
 30
0.0
 10
544.5105023124697
 20
189.5919459411194
 30
0.0
 10
547.9434771256256
 20
188.224306145616
 30
0.0
 10
551.4758866478121
 20
186.9487772194995
 30
0.0
 10
555.1005412821286
 20
185.7675328498898
 30
0.0
 10
558.8103075482569
 20
184.6826984435019
 30
0.0
 10
562.5978555360946
 20
183.6961945542483
 30
0.0
 10
566.455737504269
 20
182.8097767412476
 30
0.0
 10
570.3763792277948
 20
182.0250219202017
 30
0.0
 10
574.3520960980143
 20
181.3433285524899
 30
0.0
 10
578.3751038594993
 20
180.7659129581523
 30
0.0
 10
582.437531902681
 20
180.2938067504576
 30
0.0
 10
586.5314368315645
 20
179.9278542476923
 30
0.0
 10
590.6488167560922
 20
179.6687103151172
 30
0.0
 10
594.781626031798
 20
179.5168386242811
 30
0.0
 10
598.9217903691753
 20
179.4725104118848
 30
0.0
 10
603.0612136333749
 20
179.5358036410462
 30
0.0
 10
607.1917960058624
 20
179.7066017378272
 30
0.0
 10
611.3054558778528
 20
179.9845935819273
 30
0.0
 10
615.3941540635551
 20
180.3692756818116
 30
0.0
 10
619.4499064826656
 20
180.8599546133059
 30
0.0
 10
623.4647932236927
 20
181.4557489607225
 30
0.0
 10
627.4309732033169
 20
182.1555920469185
 30
0.0
 10
631.3406983209749
 20
182.9582351639754
 30
0.0
 10
635.1863269759858
 20
183.8622512424092
 30
0.0
 10
638.9603368071953
 20
184.8660388696351
 30
0.0
 10
642.6553365068254
 20
185.9678265325356
 30
0.0
 10
646.2640765556469
 20
187.1656769122107
 30
0.0
 10
649.7794587293424
 20
188.4574909990015
 30
0.0
 10
653.194544242137
 20
189.8410117208154
 30
0.0
 10
656.5025604321675
 20
191.3138266870066
 30
0.0
 10
659.6969059663207
 20
192.8733695460365
 30
0.0
 10
662.7711546659993
 20
194.5169193446295
 30
0.0
 10
665.7190582529162
 20
196.2415971784051
 30
0.0
 10
668.5345483035427
 20
198.0443591719833
 30
0.0
 10
671.2116915598407
 20
199.9219520717202
 30
0.0
 10
673.7447406254842
 20
201.8709149058998
 30
0.0
 10
676.1281474388632
 20
203.8875564533265
 30
0.0
 10
678.3566200423126
 20
205.9679678159854
 30
0.0
 10
680.4251160697185
 20
208.1079735664757
 30
0.0
 10
682.3288859063163
 20
210.3031115124535
 30
0.0
 10
684.063523993717
 20
212.5486225016872
 30
0.0
 10
685.6250522121939
 20
214.8394561904889
 30
0.0
 10
687.0099334637149
 20
217.1703040880826
 30
0.0
 10
688.2153627584983
 20
219.5356478680202
 30
0.0
 10
689.2384938887683
 20
221.9298836315474
 30
0.0
 10
690.0795238470852
 20
224.3472874897699
 30
0.0
 10
690.7302883899047
 20
226.7826526973468
 30
0.0
 10
691.1849488547977
 20
229.0707387847805
 30
0.0
 10
691.335130292068
 20
230.5500264313828
 30
0.0
 10
691.4020144795251
 20
231.2088358958303
 30
0.0
  0
LINE
  5
24C
330
1F
100
AcDbEntity
  8
0
  6
Continuous
 62
     7
370
    15
100
AcDbLine
 10
515.5568546423
 20
209.4397448368
 30
0.0
 11
515.5568546423
 21
197.4541283782
 31
0.0
  0
LINE
  5
24D
330
1F
100
AcDbEntity
  8
0
  6
Continuous
 62
     7
370
    15
100
AcDbLine
 10
681.5568546423
 20
142.373725941
 30
0.0
 11
681.5568546423
 21
209.4538358433
 31
0.0
  0
SPLINE
  5
24E
330
1F
100
AcDbEntity
  8
0
  6
Continuous
 62
     7
370
    15
100
AcDbSpline
210
0.0
220
0.0
230
1.0
 70
     8
 71
     3
 72
    17
 73
    13
 74
     0
 42
0.000000001
 43
0.00000001
 40
0.0
 40
0.0
 40
0.0
 40
0.0
 40
0.0148258507295215
 40
0.1230817457961395
 40
0.2327786551962501
 40
0.343885723240891
 40
0.4563115773242879
 40
0.5699117001738794
 40
0.6845020051650633
 40
0.7998765729843326
 40
0.9158263121353687
 40
1.0
 40
1.0
 40
1.0
 40
1.0
 10
522.4902584891831
 20
120.1585725435047
 30
0.0
 10
522.5595193044261
 20
120.0474654168059
 30
0.0
 10
523.1345110678591
 20
119.1250725387195
 30
0.0
 10
524.3736569493515
 20
117.4571113748874
 30
0.0
 10
526.2198489989471
 20
115.1557041462695
 30
0.0
 10
528.254568076602
 20
112.9225297067847
 30
0.0
 10
530.4542949731481
 20
110.7538473305312
 30
0.0
 10
532.8198687449511
 20
108.659067709494
 30
0.0
 10
535.3429199106765
 20
106.6434201844662
 30
0.0
 10
538.0187619465653
 20
104.7154564139369
 30
0.0
 10
540.5696991859922
 20
103.0432305290717
 30
0.0
 10
542.2622860035023
 20
102.0449871991619
 30
0.0
 10
542.9742030268386
 20
101.6251172033408
 30
0.0
  0
SPLINE
  5
24F
330
1F
100
AcDbEntity
  8
0
  6
Continuous
 62
     7
370
    15
100
AcDbSpline
210
0.0
220
0.0
230
1.0
 70
     8
 71
     3
 72
    56
 73
    52
 74
     0
 42
0.000000001
 43
0.00000001
 40
0.0
 40
0.0
 40
0.0
 40
0.0
 40
0.0115928804483011
 40
0.0329130149976105
 40
0.0542134222526361
 40
0.0754973692483189
 40
0.0967536415375361
 40
0.1179753568046646
 40
0.1391590748078157
 40
0.1603040113099313
 40
0.1814113721273812
 40
0.2024838179351844
 40
0.2235250506272767
 40
0.2445395033823015
 40
0.2655321144742042
 40
0.286508166050444
 40
0.3074731715875894
 40
0.3284327984261626
 40
0.3493928141405513
 40
0.3703578528487159
 40
0.391333028021452
 40
0.4123242044552239
 40
0.4333372099696853
 40
0.4543777788055746
 40
0.4754514692886705
 40
0.4965635434674894
 40
0.5177187937667824
 40
0.5389212984321442
 40
0.5601740843079949
 40
0.5814786733810665
 40
0.6028344905924375
 40
0.6242381181672457
 40
0.6456824013922863
 40
0.6671554490281818
 40
0.6886355788765918
 40
0.710093108388807
 40
0.7314948811468542
 40
0.7528018763267855
 40
0.7739712671893021
 40
0.7949596616037804
 40
0.8157271188507416
 40
0.8362412041017083
 40
0.8564802406304326
 40
0.8764351458957038
 40
0.8961096820467852
 40
0.9155193853532848
 40
0.9346896812619266
 40
0.953653706018035
 40
0.9724502203931431
 40
0.9911218210317447
 40
1.0
 40
1.0
 40
1.0
 40
1.0
 10
542.9742030268386
 20
101.6251172033408
 30
0.0
 10
543.5190304096594
 20
101.3157457441318
 30
0.0
 10
545.0658342348053
 20
100.4374180910358
 30
0.0
 10
547.705657053447
 20
99.07204641588817
 30
0.0
 10
550.9216040103466
 20
97.56268255649357
 30
0.0
 10
554.2399498892528
 20
96.16257700472228
 30
0.0
 10
557.6507929453891
 20
94.87114749130401
 30
0.0
 10
561.1462517781499
 20
93.69017075651536
 30
0.0
 10
564.717969506396
 20
92.62052579499623
 30
0.0
 10
568.3579824521764
 20
91.6630490383435
 30
0.0
 10
572.0584208764485
 20
90.8183837478839
 30
0.0
 10
575.8115277826303
 20
90.0870728759441
 30
0.0
 10
579.6096033832558
 20
89.46956709010193
 30
0.0
 10
583.4449818597709
 20
88.96624114430763
 30
0.0
 10
587.3100116012425
 20
88.57739841393746
 30
0.0
 10
591.1970452232664
 20
88.30327276380902
 30
0.0
 10
595.0984358247401
 20
88.14402815773005
 30
0.0
 10
599.0065384387755
 20
88.09975797483759
 30
0.0
 10
602.9136408435772
 20
88.17048360826284
 30
0.0
 10
606.8119996015105
 20
88.35614505234022
 30
0.0
 10
610.6938982544634
 20
88.65660008452815
 30
0.0
 10
614.5517309314132
 20
89.0716405728385
 30
0.0
 10
618.3779799936763
 20
89.60100636630371
 30
0.0
 10
622.1651723975406
 20
90.24439131106536
 30
0.0
 10
625.9058776756343
 20
91.00145209895165
 30
0.0
 10
629.592699478832
 20
91.8718165615637
 30
0.0
 10
633.2182587825309
 20
92.8550896100446
 30
0.0
 10
636.7751668279816
 20
93.95085421014457
 30
0.0
 10
640.2559860425046
 20
95.15866375321325
 30
0.0
 10
643.6531777955943
 20
96.47802096763309
 30
0.0
 10
646.9590372164506
 20
97.9083372506828
 30
0.0
 10
650.1656178585077
 20
99.44886533649262
 30
0.0
 10
653.2646531536843
 20
101.0985981802586
 30
0.0
 10
656.2472999301045
 20
102.8560183029941
 30
0.0
 10
659.1040789798088
 20
104.7188403882459
 30
0.0
 10
661.8251061720373
 20
106.6838589416925
 30
0.0
 10
664.4004071702165
 20
108.7468752348031
 30
0.0
 10
666.8202044010962
 20
110.9026276190624
 30
0.0
 10
669.0751372529717
 20
113.1446622199924
 30
0.0
 10
671.1566859409015
 20
115.4654325888563
 30
0.0
 10
673.0575759711842
 20
117.8565373196992
 30
0.0
 10
674.7720795856502
 20
120.3090579415148
 30
0.0
 10
676.2961356022975
 20
122.8139279385168
 30
0.0
 10
677.6273233908381
 20
125.3622574989085
 30
0.0
 10
678.7645355042233
 20
127.9455604144924
 30
0.0
 10
679.7081112387945
 20
130.5558684416532
 30
0.0
 10
680.4579547188258
 20
133.1857493190877
 30
0.0
 10
681.0190128965224
 20
135.8282766195121
 30
0.0
 10
681.3798952076497
 20
138.476949498865
 30
0.0
 10
681.5541712776494
 20
140.6667778275641
 30
0.0
 10
681.5387496619653
 20
141.9704726197361
 30
0.0
 10
681.5337798993763
 20
142.3906006879114
 30
0.0
  0
LINE
  5
250
330
1F
100
AcDbEntity
  8
0
  6
Continuous
 62
     7
370
    15
100
AcDbLine
 10
559.0087210907
 20
101.4680363016
 30
0.0
 11
570.9006409811
 21
108.3330955274
 31
0.0
  0
LINE
  5
251
330
1F
100
AcDbEntity
  8
0
  6
Continuous
 62
     7
370
    15
100
AcDbLine
 10
518.4750467835
 20
199.1387648428
 30
0.0
 11
506.5831268932
 21
192.273705617
 31
0.0
  0
SPLINE
  5
252
330
1F
100
AcDbEntity
  8
0
  6
Continuous
 62
     7
370
    15
100
AcDbSpline
210
0.0
220
0.0
230
1.0
 70
     8
 71
     3
 72
    10
 73
     6
 74
     0
 42
0.000000001
 43
0.00000001
 40
0.0
 40
0.0
 40
0.0
 40
0.0
 40
0.3718742647276352
 40
0.7839363824035165
 40
1.0
 40
1.0
 40
1.0
 40
1.0
 10
518.891820679235
 20
199.5092637967106
 30
0.0
 10
518.8852774281897
 20
199.4984779296519
 30
0.0
 10
518.8714838074957
 20
199.4757405842503
 30
0.0
 10
518.7266171255885
 20
199.2875172791038
 30
0.0
 10
518.5338401373148
 20
199.1859453601754
 30
0.0
 10
518.4675284243299
 20
199.1510065015719
 30
0.0
  0
LINE
  5
253
330
1F
100
AcDbEntity
  8
0
  6
Continuous
 62
     7
370
    15
100
AcDbLine
 10
681.5568546423
 20
172.2135679399
 30
0.0
 11
690.5305823914
 21
177.3939907011
 31
0.0
  0
ARC
  5
254
330
1F
100
AcDbEntity
  8
0
  6
Continuous
 62
     7
370
    15
100
AcDbCircle
 10
536.6118995618
 20
242.4000349465
 30
0.0
 40
31.05499358325239
100
AcDbArc
 50
174.206888268
 51
185.6267907994
  0
ARC
  5
255
330
1F
100
AcDbEntity
  8
0
  6
Continuous
 62
     7
370
    15
100
AcDbCircle
 10
660.5061238174
 20
242.4000493747
 30
0.0
 40
31.05068125375859
100
AcDbArc
 50
354.7009602085
 51
5.5400387484
  0
LWPOLYLINE
  5
256
330
1F
100
AcDbEntity
  8
0
  6
Continuous
 62
     7
370
    15
100
AcDbPolyline
 90
       69
 70
   128
 43
0.0
 10
691.5568546423
 20
239.1338121495
 10
691.5504649766
 20
238.5044793103
 10
691.3971568964
 20
235.988877264
 10
691.0397656829
 20
233.480188467
 10
690.4790769595
 20
230.9839275619
 10
689.7163232417
 20
228.5055818719
 10
688.7531812277
 20
226.0505993386
 10
687.5917681126
 20
223.6243765466
 10
686.2346369347
 20
221.23224686
 10
684.6847709627
 20
218.879468699
 10
682.9455771384
 20
216.5712139807
 10
681.0208785872
 20
214.31255675
 10
678.9149062144
 20
212.1084620255
 10
676.6322894043
 20
209.9637748858
 10
674.1780458439
 20
207.8832098189
 10
671.5575704934
 20
205.871340358
 10
668.7766237261
 20
203.9325890292
 10
665.8413186667
 20
202.0712176283
 10
662.7581077527
 20
200.2913178539
 10
659.5337685509
 20
198.5968023119
 10
656.1753888586
 20
196.9913959152
 10
652.6903511232
 20
195.4786276955
 10
649.086316214
 20
194.0618230456
 10
645.3712065819
 20
192.7440964097
 10
641.5531888443
 20
191.5283444369
 10
637.6406558326
 20
190.4172396139
 10
633.6422081436
 20
189.4132243902
 10
629.5666352331
 20
188.5185058092
 10
625.4228960948
 20
187.7350506565
 10
621.2200995667
 20
187.0645811365
 10
616.9674843077
 20
186.5085710868
 10
612.6743984891
 20
186.0682427382
 10
608.3502792452
 20
185.7445640278
 10
604.0046319285
 20
185.5382464719
 10
599.6470092151
 20
185.449743601
 10
595.2869901053
 20
185.4792499638
 10
590.9341588674
 20
185.6267006989
 10
586.5980839692
 20
185.8917716775
 10
582.2882970443
 20
186.2738802161
 10
578.0142719398
 20
186.7721863572
 10
573.7854038903
 20
187.3855947158
 10
569.6109888657
 20
188.1127568871
 10
565.5002031362
 20
188.9520744109
 10
561.4620831009
 20
189.9017022852
 10
557.5055054241
 20
190.9595530217
 10
553.6391675222
 20
192.1233012349
 10
549.8715684451
 20
193.3903887538
 10
546.210990193
 20
194.7580302449
 10
542.6654795116
 20
196.2232193355
 10
539.2428302027
 20
197.7827352219
 10
535.9505659924
 20
199.4331497497
 10
532.7959239919
 20
201.1708349497
 10
529.785838789
 20
202.9919710126
 10
526.9269272042
 20
204.8925546862
 10
524.2254737457
 20
206.868408075
 10
521.6874167944
 20
208.9151878244
 10
519.3183355503
 20
211.0283946684
 10
517.1234377682
 20
213.2033833198
 10
515.1075483098
 20
215.4353726813
 10
513.2750985376
 20
217.719456356
 10
511.6301165739
 20
220.0506134323
 10
510.1762184461
 20
222.423719521
 10
508.9166001377
 20
224.8335580198
 10
507.8540305633
 20
227.2748315808
 10
506.9908454812
 20
229.7421737548
 10
506.3289423598
 20
232.2301607883
 10
505.8697762056
 20
234.7333235457
 10
505.6143563656
 20
237.2461595321
 10
505.5568546423
 20
239.1338121495
  0
LINE
  5
257
330
1F
100
AcDbEntity
  8
0
  6
Continuous
 62
     7
370
    15
100
AcDbLine
 10
611.4548927489
 20
290.2583875914
 30
0.0
 11
613.546902184
 21
285.7512221491
 31
0.0
  0
LINE
  5
258
330
1F
100
AcDbEntity
  8
0
  6
Continuous
 62
     7
370
    15
100
AcDbLine
 10
613.546902184
 20
285.7512221491
 30
0.0
 11
621.3543876856
 21
284.5435308086
 31
0.0
  0
LINE
  5
259
330
1F
100
AcDbEntity
  8
0
  6
Continuous
 62
     7
370
    15
100
AcDbLine
 10
621.3543876856
 20
284.5435308086
 30
0.0
 11
627.069863752
 21
287.8430049105
 31
0.0
  0
LINE
  5
25A
330
1F
100
AcDbEntity
  8
0
  6
Continuous
 62
     7
370
    15
100
AcDbLine
 10
668.0234352439
 20
257.6020631185
 30
0.0
 11
670.1154446789
 21
253.0948976761
 31
0.0
  0
LINE
  5
25B
330
1F
100
AcDbEntity
  8
0
  6
Continuous
 62
     7
370
    15
100
AcDbLine
 10
670.1154446789
 20
253.0948976761
 30
0.0
 11
677.9229301805
 21
251.8872063357
 31
0.0
  0
LINE
  5
25C
330
1F
100
AcDbEntity
  8
0
  6
Continuous
 62
     7
370
    15
100
AcDbLine
 10
677.9229301805
 20
251.8872063357
 30
0.0
 11
683.638406247
 21
255.1866804376
 31
0.0
  0
LINE
  5
25D
330
1F
100
AcDbEntity
  8
0
  6
Continuous
 62
     7
370
    15
100
AcDbLine
 10
647.3179116357
 20
212.9926942943
 30
0.0
 11
649.4099210707
 21
208.4855288519
 31
0.0
  0
LINE
  5
25E
330
1F
100
AcDbEntity
  8
0
  6
Continuous
 62
     7
370
    15
100
AcDbLine
 10
649.4099210707
 20
208.4855288519
 30
0.0
 11
657.2174065723
 21
207.2778375115
 31
0.0
  0
LINE
  5
25F
330
1F
100
AcDbEntity
  8
0
  6
Continuous
 62
     7
370
    15
100
AcDbLine
 10
657.2174065723
 20
207.2778375115
 30
0.0
 11
662.9328826388
 21
210.5773116134
 31
0.0
  0
LINE
  5
260
330
1F
100
AcDbEntity
  8
0
  6
Continuous
 62
     7
370
    15
100
AcDbLine
 10
570.0438455325
 20
201.0396499429
 30
0.0
 11
572.1358549676
 21
196.5324845006
 31
0.0
  0
LINE
  5
261
330
1F
100
AcDbEntity
  8
0
  6
Continuous
 62
     7
370
    15
100
AcDbLine
 10
572.1358549676
 20
196.5324845006
 30
0.0
 11
579.9433404692
 21
195.3247931602
 31
0.0
  0
LINE
  5
262
330
1F
100
AcDbEntity
  8
0
  6
Continuous
 62
     7
370
    15
100
AcDbLine
 10
579.9433404692
 20
195.3247931602
 30
0.0
 11
585.6588165356
 21
198.6242672621
 31
0.0
  0
LINE
  5
263
330
1F
100
AcDbEntity
  8
0
  6
Continuous
 62
     7
370
    15
100
AcDbLine
 10
523.3747979742
 20
227.9811176331
 30
0.0
 11
529.0902740407
 21
231.280591735
 31
0.0
  0
LINE
  5
264
330
1F
100
AcDbEntity
  8
0
  6
Continuous
 62
     7
370
    15
100
AcDbLine
 10
513.4753030376
 20
233.6959744159
 30
0.0
 11
515.5673124727
 21
229.1888089735
 31
0.0
  0
LINE
  5
265
330
1F
100
AcDbEntity
  8
0
  6
Continuous
 62
     7
370
    15
100
AcDbLine
 10
515.5673124727
 20
229.1888089735
 30
0.0
 11
523.3747979742
 21
227.9811176331
 31
0.0
  0
LINE
  5
266
330
1F
100
AcDbEntity
  8
0
  6
Continuous
 62
     7
370
    15
100
AcDbLine
 10
536.2728360809
 20
273.7981777977
 30
0.0
 11
544.0803215824
 21
272.5904864573
 31
0.0
  0
LINE
  5
267
330
1F
100
AcDbEntity
  8
0
  6
Continuous
 62
     7
370
    15
100
AcDbLine
 10
544.0803215824
 20
272.5904864573
 30
0.0
 11
549.7957976489
 21
275.8899605592
 31
0.0
  0
LINE
  5
268
330
1F
100
AcDbEntity
  8
0
  6
Continuous
 62
     7
370
    15
100
AcDbLine
 10
534.1808266458
 20
278.3053432401
 30
0.0
 11
536.2728360809
 21
273.7981777977
 31
0.0
  0
LWPOLYLINE
  5
269
330
1F
100
AcDbEntity
  8
0
  6
Continuous
 62
     7
370
    15
100
AcDbPolyline
 90
       35
 70
   128
 43
0.0
 10
663.6212490104
 20
200.7686014046
 10
661.2653767267
 20
199.4557252813
 10
658.0163845255
 20
197.7895181985
 10
654.6347148631
 20
196.2137443802
 10
651.1279135669
 20
194.731919994
 10
647.5038056817
 20
193.3473515695
 10
643.7704780094
 20
192.0631286203
 10
639.9362610638
 20
190.8821167499
 10
636.0097104821
 20
189.8069512577
 10
631.9995879342
 20
188.8400312581
 10
627.9148415714
 20
187.9835143279
 10
623.7645860601
 20
187.2393116913
 10
619.5580822432
 20
186.6090839553
 10
615.3047164756
 20
186.0942374044
 10
611.0139796795
 20
185.6959208626
 10
606.6954461664
 20
185.4150231298
 10
602.3587522732
 20
185.2521709989
 10
598.0135748598
 20
185.2077278564
 10
593.6696097159
 20
185.2817928725
 10
589.3365499266
 20
185.4742007791
 10
585.0240642424
 20
185.784522239
 10
580.7417755053
 20
186.2120648036
 10
576.4992391757
 20
186.7558744583
 10
572.3059220114
 20
187.4147377512
 10
568.1711809424
 20
188.1871845005
 10
564.104242193
 20
189.0714910756
 10
560.1141806937
 20
190.0656842426
 10
556.2098998319
 20
191.167545568
 10
552.4001115849
 20
192.3746163681
 10
548.6933170801
 20
193.6842031962
 10
545.0977876253
 20
195.0933838517
 10
541.6215462528
 20
196.5990139018
 10
538.2723498163
 20
198.1977336971
 10
535.0576716826
 20
199.8859758684
 10
533.4924602741
 20
200.7686014046
  0
LWPOLYLINE
  5
26A
330
1F
100
AcDbEntity
  8
0
  6
Continuous
 62
     7
370
    15
100
AcDbPolyline
 90
       70
 70
   128
 43
0.0
 10
691.5460978362
 20
238.3172713376
 10
691.5504649766
 20
236.8713976866
 10
691.3971568964
 20
234.3557956402
 10
691.0397656829
 20
231.8471068432
 10
690.4790769595
 20
229.3508459381
 10
689.7163232417
 20
226.8725002481
 10
688.7531812277
 20
224.4175177149
 10
687.5917681126
 20
221.9912949228
 10
686.2346369347
 20
219.5991652362
 10
684.6847709627
 20
217.2463870752
 10
682.9455771384
 20
214.938132357
 10
681.0208785872
 20
212.6794751262
 10
678.9149062144
 20
210.4753804017
 10
676.6322894043
 20
208.3306932621
 10
674.1780458439
 20
206.2501281951
 10
671.5575704934
 20
204.2382587343
 10
668.7766237261
 20
202.2995074054
 10
665.8413186667
 20
200.4381360046
 10
662.7581077527
 20
198.6582362302
 10
659.5337685509
 20
196.9637206881
 10
656.1753888586
 20
195.3583142914
 10
652.6903511232
 20
193.8455460717
 10
649.086316214
 20
192.4287414219
 10
645.3712065819
 20
191.111014786
 10
641.5531888443
 20
189.8952628132
 10
637.6406558326
 20
188.7841579901
 10
633.6422081436
 20
187.7801427664
 10
629.5666352331
 20
186.8854241854
 10
625.4228960948
 20
186.1019690327
 10
621.2200995667
 20
185.4314995127
 10
616.9674843077
 20
184.875489463
 10
612.6743984891
 20
184.4351611144
 10
608.3502792452
 20
184.1114824041
 10
604.0046319285
 20
183.9051648481
 10
599.6470092151
 20
183.8166619773
 10
595.2869901053
 20
183.8461683401
 10
590.9341588674
 20
183.9936190751
 10
586.5980839692
 20
184.2586900537
 10
582.2882970443
 20
184.6407985923
 10
578.0142719398
 20
185.1391047334
 10
573.7854038903
 20
185.752513092
 10
569.6109888657
 20
186.4796752633
 10
565.5002031362
 20
187.3189927872
 10
561.4620831009
 20
188.2686206614
 10
557.5055054241
 20
189.3264713979
 10
553.6391675222
 20
190.4902196112
 10
549.8715684451
 20
191.75730713
 10
546.210990193
 20
193.1249486212
 10
542.6654795116
 20
194.5901377117
 10
539.2428302027
 20
196.1496535981
 10
535.9505659924
 20
197.800068126
 10
532.7959239919
 20
199.537753326
 10
529.785838789
 20
201.3588893889
 10
526.9269272042
 20
203.2594730624
 10
524.2254737457
 20
205.2353264512
 10
521.6874167944
 20
207.2821062007
 10
519.3183355503
 20
209.3953130447
 10
517.1234377682
 20
211.570301696
 10
515.1075483098
 20
213.8022910575
 10
513.2750985376
 20
216.0863747323
 10
511.6301165739
 20
218.4175318086
 10
510.1762184461
 20
220.7906378972
 10
508.9166001377
 20
223.2004763961
 10
507.8540305633
 20
225.641749957
 10
506.9908454812
 20
228.109092131
 10
506.3289423598
 20
230.5970791645
 10
505.8697762056
 20
233.1002419219
 10
505.6143563656
 20
235.6130779083
 10
505.563244308
 20
238.1300633649
 10
505.5676114484
 20
238.3172713376
  0
LWPOLYLINE
  5
26B
330
1F
100
AcDbEntity
  8
0
  6
Continuous
 62
     7
370
    15
100
AcDbPolyline
 90
        3
 70
   128
 43
0.0
 10
691.4236464193
 20
231.3620759112
 10
691.5504649766
 20
233.605234439
 10
691.5568546423
 20
234.2345672782
  0
LWPOLYLINE
  5
26C
330
1F
100
AcDbEntity
  8
0
  6
Continuous
 62
     7
370
    15
100
AcDbPolyline
 90
        3
 70
   128
 43
0.0
 10
505.5568546423
 20
234.2345672782
 10
505.6143563656
 20
232.3469146608
 10
505.7055853134
 20
231.1994509024
  0
LINE
  5
26D
330
1F
100
AcDbEntity
  8
0
  6
Continuous
 62
     7
370
    15
100
AcDbLine
 10
576.8045738294
 20
163.0899455843
 30
0.0
 11
576.8045738294
 21
114.0974968712
 31
0.0
  0
SPLINE
  5
26E
330
1F
100
AcDbEntity
  8
0
  6
Continuous
 62
     7
370
    15
100
AcDbSpline
210
0.0
220
0.0
230
1.0
 70
     8
 71
     3
 72
    28
 73
    24
 74
     0
 42
0.000000001
 43
0.00000001
 40
0.0
 40
0.0
 40
0.0
 40
0.0
 40
0.1250000000000004
 40
0.1250000000000004
 40
0.1875000000000006
 40
0.1875000000000006
 40
0.2500000000000008
 40
0.2500000000000008
 40
0.375
 40
0.375
 40
0.4375
 40
0.4375
 40
0.5
 40
0.5
 40
0.625
 40
0.625
 40
0.7499999999999999
 40
0.7499999999999999
 40
0.8124999999999999
 40
0.8124999999999999
 40
0.8749999999999999
 40
0.8749999999999999
 40
1.0
 40
1.0
 40
1.0
 40
1.0
 10
564.1913405245149
 20
175.9219477563601
 30
0.0
 10
564.9678169926758
 20
175.7180553553937
 30
0.0
 10
565.7381185370897
 20
175.45844173439
 30
0.0
 10
566.884736091395
 20
174.9905014046475
 30
0.0
 10
567.265449708181
 20
174.8213209179962
 30
0.0
 10
568.0237271088084
 20
174.4560725125685
 30
0.0
 10
568.4008727712203
 20
174.2600332228094
 30
0.0
 10
569.5058613861436
 20
173.6425573440806
 30
0.0
 10
570.2148735368654
 20
173.1887162366867
 30
0.0
 10
571.2352684568478
 20
172.4420882239965
 30
0.0
 10
571.5693829189049
 20
172.1811039195584
 30
0.0
 10
572.2162348812725
 20
171.6403178737964
 30
0.0
 10
572.5273032529722
 20
171.3620586890397
 30
0.0
 10
573.4231191211379
 20
170.5029710132024
 30
0.0
 10
573.9712931747508
 20
169.8976984381883
 30
0.0
 10
574.9555756135501
 20
168.6141266952103
 30
0.0
 10
575.3774324545747
 20
167.9543827751118
 30
0.0
 10
575.8993903914788
 20
166.9336896821411
 30
0.0
 10
576.0549021171146
 20
166.5879221433102
 30
0.0
 10
576.3255212386874
 20
165.8861783320815
 30
0.0
 10
576.4384778769667
 20
165.5358478945263
 30
0.0
 10
576.710908018791
 20
164.4859769766256
 30
0.0
 10
576.8045738294173
 20
163.7874868297933
 30
0.0
 10
576.8045738294173
 20
163.0899455843056
 30
0.0
  0
LWPOLYLINE
  5
26F
330
1F
100
AcDbEntity
  8
0
  6
Continuous
 62
     7
370
    15
100
AcDbPolyline
 90
       15
 70
   128
 43
0.0
 10
523.0054718659
 20
199.6980436445
 10
524.8638101102
 20
197.4912799955
 10
526.9154041103
 20
195.342329536
 10
529.1548736793
 20
193.2568277644
 10
531.5763459376
 20
191.2402437888
 10
534.173470714
 20
189.2978659842
 10
536.9394371985
 20
187.4347881244
 10
539.8669918038
 20
185.6558960236
 10
542.9484571869
 20
183.9658547235
 10
546.1757523826
 20
182.3690962599
 10
549.5404139957
 20
180.8698080398
 10
553.0336183951
 20
179.4719218599
 10
556.6462048541
 20
178.1791035961
 10
560.368699573
 20
176.9947435897
 10
564.1913405245
 20
175.9219477564
  0
LINE
  5
270
330
1F
100
AcDbEntity
  8
0
  6
Continuous
 62
     7
370
    15
100
AcDbLine
 10
572.1358549676
 20
198.9821069363
 30
0.0
 11
572.1358549676
 21
196.5324845006
 31
0.0
  0
LINE
  5
271
330
1F
100
AcDbEntity
  8
0
  6
Continuous
 62
     7
370
    15
100
AcDbLine
 10
572.1358549676
 20
198.9821069363
 30
0.0
 11
579.9433404692
 21
197.7744155958
 31
0.0
  0
LINE
  5
272
330
1F
100
AcDbEntity
  8
0
  6
Continuous
 62
     7
370
    15
100
AcDbLine
 10
579.9433404692
 20
197.7744155958
 30
0.0
 11
579.9433404692
 21
195.3247931602
 31
0.0
  0
LINE
  5
273
330
1F
100
AcDbEntity
  8
0
  6
Continuous
 62
     7
370
    15
100
AcDbLine
 10
570.0438455325
 20
203.4892723786
 30
0.0
 11
572.1358549676
 21
198.9821069363
 31
0.0
  0
LINE
  5
274
330
1F
100
AcDbEntity
  8
0
  6
Continuous
 62
     7
370
    15
100
AcDbLine
 10
575.759321599
 20
206.7887464805
 30
0.0
 11
570.0438455325
 21
203.4892723786
 31
0.0
  0
LINE
  5
275
330
1F
100
AcDbEntity
  8
0
  6
Continuous
 62
     7
370
    15
100
AcDbLine
 10
583.5668071006
 20
205.5810551401
 30
0.0
 11
575.759321599
 21
206.7887464805
 31
0.0
  0
LINE
  5
276
330
1F
100
AcDbEntity
  8
0
  6
Continuous
 62
     7
370
    15
100
AcDbLine
 10
585.6588165356
 20
201.0738896978
 30
0.0
 11
583.5668071006
 21
205.5810551401
 31
0.0
  0
LINE
  5
277
330
1F
100
AcDbEntity
  8
0
  6
Continuous
 62
     7
370
    15
100
AcDbLine
 10
579.9433404692
 20
197.7744155958
 30
0.0
 11
585.6588165356
 21
201.0738896978
 31
0.0
  0
LINE
  5
278
330
1F
100
AcDbEntity
  8
0
  6
Continuous
 62
     7
370
    15
100
AcDbLine
 10
585.6588165356
 20
201.0738896978
 30
0.0
 11
585.6588165356
 21
198.6242672621
 31
0.0
  0
LINE
  5
279
330
1F
100
AcDbEntity
  8
0
  6
Continuous
 62
     7
370
    15
100
AcDbLine
 10
570.0438455325
 20
203.4892723786
 30
0.0
 11
570.0438455325
 21
201.0396499429
 31
0.0
  0
ARC
  5
27A
330
1F
100
AcDbEntity
  8
0
  6
Continuous
 62
     7
370
    15
100
AcDbCircle
 10
545.837599047
 20
154.4035818361
 30
0.0
 40
15.25583199594728
100
AcDbArc
 50
2.3868561234
 51
57.6131440222
  0
LINE
  5
27B
330
1F
100
AcDbEntity
  8
0
  6
Continuous
 62
     7
370
    15
100
AcDbLine
 10
561.0801952394
 20
106.0464843663
 30
0.0
 11
561.0801952394
 21
155.0389330794
 31
0.0
  0
LWPOLYLINE
  5
27C
330
1F
100
AcDbEntity
  8
0
  6
Continuous
 62
     7
370
    15
100
AcDbPolyline
 90
       11
 70
   128
 43
0.0
 10
554.0091274275
 20
101.9631168066
 10
555.115286138
 20
101.4250746991
 10
556.1942075498
 20
101.1013404213
 10
557.2193250371
 20
100.9998853855
 10
558.1653968053
 20
101.1232077513
 10
559.0091274275
 20
101.468270913
 10
559.7297414557
 20
102.0265782701
 10
560.3094949809
 20
102.7843824428
 10
560.7341125472
 20
103.7230237772
 10
560.9931386609
 20
104.8193898084
 10
561.0801952394
 20
106.0464843663
  0
LINE
  5
27D
330
1F
100
AcDbEntity
  8
0
  6
Continuous
 62
     7
370
    15
100
AcDbLine
 10
511.5827205563
 20
126.4553601612
 30
0.0
 11
554.0091274275
 21
101.9631168066
 31
0.0
  0
ARC
  5
27E
330
1F
100
AcDbEntity
  8
0
  6
Continuous
 62
     7
370
    15
100
AcDbCircle
 10
519.7542489369
 20
139.3381600826
 30
0.0
 40
15.25583199594764
100
AcDbArc
 50
182.3868561234
 51
237.6131440222
  0
LINE
  5
27F
330
1F
100
AcDbEntity
  8
0
  6
Continuous
 62
     7
370
    15
100
AcDbLine
 10
504.5116527445
 20
187.6952575524
 30
0.0
 11
504.5116527445
 21
138.7028088392
 31
0.0
  0
LWPOLYLINE
  5
280
330
1F
100
AcDbEntity
  8
0
  6
Continuous
 62
     7
370
    15
100
AcDbPolyline
 90
       11
 70
   128
 43
0.0
 10
511.5827205563
 20
191.7786251121
 10
510.4765618459
 20
192.3166672196
 10
509.3976404341
 20
192.6404014974
 10
508.3725229467
 20
192.7418565332
 10
507.4264511786
 20
192.6185341673
 10
506.5827205563
 20
192.2734710057
 10
505.8621065282
 20
191.7151636485
 10
505.282353003
 20
190.9573594759
 10
504.8577354367
 20
190.0187181415
 10
504.598709323
 20
188.9223521102
 10
504.5116527445
 20
187.6952575524
  0
LINE
  5
281
330
1F
100
AcDbEntity
  8
0
  6
Continuous
 62
     7
370
    15
100
AcDbLine
 10
554.0091274275
 20
167.2863817574
 30
0.0
 11
511.5827205563
 21
191.7786251121
 31
0.0
  0
LWPOLYLINE
  5
282
330
1F
100
AcDbEntity
  8
0
  6
Continuous
 62
     7
370
    15
100
AcDbPolyline
 90
       75
 70
   128
 43
0.0
 10
512.6433807281
 20
158.5046865528
 10
512.7159804961
 20
160.4363293039
 10
512.9332567172
 20
162.2702326168
 10
513.293643911
 20
163.9931831761
 10
513.7945454798
 20
165.5927670835
 10
514.4323524162
 20
167.0574593003
 10
515.2024693065
 20
168.3767066855
 10
516.0993474411
 20
169.5410040315
 10
517.1165247922
 20
170.5419625493
 10
518.246672574
 20
171.3723703097
 10
519.4816480455
 20
172.0262442059
 10
520.8125531804
 20
172.4988730613
 10
522.2297987765
 20
172.7868515744
 10
523.723173547
 20
172.8881048533
 10
525.2819176923
 20
172.8019033658
 10
526.8948004252
 20
172.5288681956
 10
528.5502008886
 20
172.0709665673
 10
530.2361918842
 20
171.4314976728
 10
531.9406258084
 20
170.6150688999
 10
533.6512221755
 20
169.6275626368
 10
535.3556560997
 20
168.4760938887
 10
537.0416470953
 20
167.1689590143
 10
538.6970475587
 20
165.7155759504
 10
540.3099302916
 20
164.1264163551
 10
541.8686744369
 20
162.4129301599
 10
543.3620492074
 20
160.587463072
 10
544.7792948035
 20
158.6631676236
 10
546.1101999384
 20
156.6539084075
 10
547.3451754099
 20
154.5741621824
 10
548.4753231916
 20
152.4389135675
 10
549.4925005428
 20
150.2635470781
 10
550.3893786773
 20
148.0637362795
 10
551.1594955677
 20
145.8553308589
 10
551.7973025041
 20
143.654242428
 10
552.2982040728
 20
141.4763298794
 10
552.6585912667
 20
139.3372851228
 10
552.8758674878
 20
137.2525200249
 10
552.9484672558
 20
135.2370553659
 10
552.8758674878
 20
133.3054126147
 10
552.6585912667
 20
131.4715093019
 10
552.2982040728
 20
129.7485587426
 10
551.7973025041
 20
128.1489748352
 10
551.1594955677
 20
126.6842826184
 10
550.3893786773
 20
125.3650352331
 10
549.4925005428
 20
124.2007378871
 10
548.4753231916
 20
123.1997793694
 10
547.3451754099
 20
122.3693716089
 10
546.1101999384
 20
121.7154977128
 10
544.7792948035
 20
121.2428688573
 10
543.3620492074
 20
120.9548903442
 10
541.8686744369
 20
120.8536370654
 10
540.3099302916
 20
120.9398385529
 10
538.6970475587
 20
121.2128737231
 10
537.0416470953
 20
121.6707753513
 10
535.3556560997
 20
122.3102442459
 10
533.6512221755
 20
123.1266730187
 10
531.9406258084
 20
124.1141792818
 10
530.2361918842
 20
125.2656480299
 10
528.5502008886
 20
126.5727829043
 10
526.8948004252
 20
128.0261659683
 10
525.2819176923
 20
129.6153255635
 10
523.723173547
 20
131.3288117588
 10
522.2297987765
 20
133.1542788467
 10
520.8125531804
 20
135.0785742951
 10
519.4816480455
 20
137.0878335112
 10
518.246672574
 20
139.1675797362
 10
517.1165247922
 20
141.3028283511
 10
516.0993474411
 20
143.4781948406
 10
515.2024693065
 20
145.6780056392
 10
514.4323524162
 20
147.8864110598
 10
513.7945454798
 20
150.0874994907
 10
513.293643911
 20
152.2654120393
 10
512.9332567172
 20
154.4044567958
 10
512.7159804961
 20
156.4892218937
 10
512.6433807281
 20
158.5046865528
  0
LINE
  5
283
330
1F
100
AcDbEntity
  8
0
  6
Continuous
 62
     7
370
    15
100
AcDbLine
 10
554.0091274275
 20
167.2863817574
 30
0.0
 11
563.1562346776
 21
172.566894374
 31
0.0
  0
SPLINE
  5
284
330
1F
100
AcDbEntity
  8
0
  6
Continuous
 62
     7
370
    15
100
AcDbSpline
210
0.0
220
0.0
230
1.0
 70
     8
 71
     3
 72
    28
 73
    24
 74
     0
 42
0.000000001
 43
0.00000001
 40
0.0
 40
0.0
 40
0.0
 40
0.0
 40
0.1250000000000001
 40
0.1250000000000001
 40
0.1875000000000006
 40
0.1875000000000006
 40
0.2500000000000011
 40
0.2500000000000011
 40
0.3125000000000017
 40
0.3125000000000017
 40
0.3750000000000022
 40
0.3750000000000022
 40
0.5000000000000016
 40
0.5000000000000016
 40
0.625000000000001
 40
0.625000000000001
 40
0.7500000000000003
 40
0.7500000000000003
 40
0.8125000000000001
 40
0.8125000000000001
 40
0.8749999999999998
 40
0.8749999999999998
 40
1.0
 40
1.0
 40
1.0
 40
1.0
 10
574.3816176953402
 20
162.7176808165132
 30
0.0
 10
574.3816176953402
 20
163.3000887600334
 30
0.0
 10
574.2899760254045
 20
163.8768053975677
 30
0.0
 10
574.0267471866366
 20
164.7349570891047
 30
0.0
 10
573.9174678343145
 20
165.0207301558426
 30
0.0
 10
573.6584122350314
 20
165.5866222571888
 30
0.0
 10
573.5106769481266
 20
165.8626450079514
 30
0.0
 10
573.1821163607714
 20
166.4024982654594
 30
0.0
 10
573.0012784924672
 20
166.6663236431798
 30
0.0
 10
572.6084770511121
 20
167.1829535073006
 30
0.0
 10
572.3957048899686
 20
167.4366182039734
 30
0.0
 10
571.7175185419884
 20
168.1764282931359
 30
0.0
 10
571.2200849742649
 20
168.63439505567
 30
0.0
 10
570.1471337935648
 20
169.4925541595035
 30
0.0
 10
569.56699840024
 20
169.894772220074
 30
0.0
 10
568.3699138252657
 20
170.6227568972362
 30
0.0
 10
567.7497958114519
 20
170.9516927366585
 30
0.0
 10
566.788832883405
 20
171.3955966582202
 30
0.0
 10
566.4619765448506
 20
171.5357416190964
 30
0.0
 10
565.806690702905
 20
171.7955732064263
 30
0.0
 10
565.4779258452091
 20
171.9155153067028
 30
0.0
 10
564.4884297716507
 20
172.2458900655131
 30
0.0
 10
563.8245533026845
 20
172.4272111667487
 30
0.0
 10
563.156234677594
 20
172.5668943739991
 30
0.0
  0
LINE
  5
285
330
1F
100
AcDbEntity
  8
0
  6
Continuous
 62
     7
370
    15
100
AcDbLine
 10
574.3816176953
 20
162.7176808165
 30
0.0
 11
561.0801952394
 21
155.0389330794
 31
0.0
  0
LINE
  5
286
330
1F
100
AcDbEntity
  8
0
  6
Continuous
 62
     7
370
    15
100
AcDbLine
 10
649.4099210707
 20
210.9351512876
 30
0.0
 11
657.2174065723
 21
209.7274599472
 31
0.0
  0
LINE
  5
287
330
1F
100
AcDbEntity
  8
0
  6
Continuous
 62
     7
370
    15
100
AcDbLine
 10
647.3179116357
 20
215.4423167299
 30
0.0
 11
649.4099210707
 21
210.9351512876
 31
0.0
  0
LINE
  5
288
330
1F
100
AcDbEntity
  8
0
  6
Continuous
 62
     7
370
    15
100
AcDbLine
 10
653.0333877022
 20
218.7417908318
 30
0.0
 11
647.3179116357
 21
215.4423167299
 31
0.0
  0
LINE
  5
289
330
1F
100
AcDbEntity
  8
0
  6
Continuous
 62
     7
370
    15
100
AcDbLine
 10
660.8408732037
 20
217.5340994914
 30
0.0
 11
653.0333877022
 21
218.7417908318
 31
0.0
  0
LINE
  5
28A
330
1F
100
AcDbEntity
  8
0
  6
Continuous
 62
     7
370
    15
100
AcDbLine
 10
662.9328826388
 20
213.0269340491
 30
0.0
 11
660.8408732037
 21
217.5340994914
 31
0.0
  0
LINE
  5
28B
330
1F
100
AcDbEntity
  8
0
  6
Continuous
 62
     7
370
    15
100
AcDbLine
 10
657.2174065723
 20
209.7274599472
 30
0.0
 11
662.9328826388
 21
213.0269340491
 31
0.0
  0
LINE
  5
28C
330
1F
100
AcDbEntity
  8
0
  6
Continuous
 62
     7
370
    15
100
AcDbLine
 10
649.4099210707
 20
210.9351512876
 30
0.0
 11
649.4099210707
 21
208.4855288519
 31
0.0
  0
LINE
  5
28D
330
1F
100
AcDbEntity
  8
0
  6
Continuous
 62
     7
370
    15
100
AcDbLine
 10
657.2174065723
 20
209.7274599472
 30
0.0
 11
657.2174065723
 21
207.2778375115
 31
0.0
  0
LINE
  5
28E
330
1F
100
AcDbEntity
  8
0
  6
Continuous
 62
     7
370
    15
100
AcDbLine
 10
662.9328826388
 20
213.0269340491
 30
0.0
 11
662.9328826388
 21
210.5773116134
 31
0.0
  0
ARC
  5
28F
330
1F
100
AcDbEntity
  8
0
  6
Continuous
 62
     7
370
    15
100
AcDbCircle
 10
576.1456740068
 20
159.3072524653
 30
0.0
 40
3.839650532130832
100
AcDbArc
 50
80.1189013352
 51
117.3504277743
  0
ARC
  5
290
330
1F
100
AcDbEntity
  8
0
  6
Continuous
 62
     7
370
    15
100
AcDbCircle
 10
558.0511675165
 20
175.97911982
 30
0.0
 40
6.140439171072537
100
AcDbArc
 50
326.2412437377
 51
359.4665258968
  0
LINE
  5
291
330
1F
100
AcDbEntity
  8
0
  6
Continuous
 62
     7
370
    15
100
AcDbLine
 10
647.3179116357
 20
215.4423167299
 30
0.0
 11
647.3179116357
 21
212.9926942943
 31
0.0
  0
LINE
  5
292
330
1F
100
AcDbEntity
  8
0
  6
Continuous
 62
     7
370
    15
100
AcDbLine
 10
574.3816176953
 20
113.7252321034
 30
0.0
 11
574.3816176953
 21
162.7176808165
 31
0.0
  0
LINE
  5
293
330
1F
100
AcDbEntity
  8
0
  6
Continuous
 62
     7
370
    15
100
AcDbLine
 10
561.0801952394
 20
106.0464843663
 30
0.0
 11
574.3816176953
 21
113.7252321034
 31
0.0
  0
LINE
  5
294
330
1F
100
AcDbEntity
  8
0
  6
Continuous
 62
     7
370
    15
100
AcDbLine
 10
520.7298278064
 20
197.0591377287
 30
0.0
 11
511.5827205563
 21
191.7786251121
 31
0.0
  0
LWPOLYLINE
  5
295
330
1F
100
AcDbEntity
  8
0
  6
Continuous
 62
     7
370
    15
100
AcDbPolyline
 90
       15
 70
   128
 43
0.0
 10
563.1562346776
 20
172.566894374
 10
559.2184539384
 20
173.6720033348
 10
555.3838358845
 20
174.8920368354
 10
551.6624365804
 20
176.2237954084
 10
548.064015181
 20
177.6637865937
 10
544.5980083387
 20
179.2082340975
 10
541.2735054563
 20
180.8530876956
 10
538.0992248508
 20
182.5940338541
 10
535.08349089
 20
184.4265070423
 10
532.2342121619
 20
186.3457017051
 10
529.5588607357
 20
188.3465848652
 10
527.064452566
 20
190.423909322
 10
524.7575290943
 20
192.572227412
 10
522.6441400942
 20
194.7859052951
 10
520.7298278064
 20
197.0591377287
  0
ARC
  5
296
330
1F
100
AcDbEntity
  8
0
  6
Continuous
 62
     7
370
    15
100
AcDbCircle
 10
520.0245723644
 20
199.9679570504
 30
0.0
 40
2.993094566637563
100
AcDbArc
 50
283.6286156516
 51
354.8261117945
  0
ARC
  5
297
330
1F
100
AcDbEntity
  8
0
  6
Continuous
 62
     7
370
    15
100
AcDbCircle
 10
576.1456740068
 20
110.3148037521
 30
0.0
 40
3.839650532131022
100
AcDbArc
 50
80.1189013352
 51
117.3504277743
  0
LINE
  5
298
330
1F
100
AcDbEntity
  8
0
  6
Continuous
 62
     7
370
    15
100
AcDbLine
 10
515.5673124727
 20
231.6384314092
 30
0.0
 11
515.5673124727
 21
229.1888089735
 31
0.0
  0
LINE
  5
299
330
1F
100
AcDbEntity
  8
0
  6
Continuous
 62
     7
370
    15
100
AcDbLine
 10
515.5673124727
 20
231.6384314092
 30
0.0
 11
523.3747979742
 21
230.4307400688
 31
0.0
  0
LINE
  5
29A
330
1F
100
AcDbEntity
  8
0
  6
Continuous
 62
     7
370
    15
100
AcDbLine
 10
523.3747979742
 20
230.4307400688
 30
0.0
 11
523.3747979742
 21
227.9811176331
 31
0.0
  0
LINE
  5
29B
330
1F
100
AcDbEntity
  8
0
  6
Continuous
 62
     7
370
    15
100
AcDbLine
 10
519.1907791041
 20
239.4450709534
 30
0.0
 11
513.4753030376
 21
236.1455968515
 31
0.0
  0
LINE
  5
29C
330
1F
100
AcDbEntity
  8
0
  6
Continuous
 62
     7
370
    15
100
AcDbLine
 10
526.9982646057
 20
238.237379613
 30
0.0
 11
519.1907791041
 21
239.4450709534
 31
0.0
  0
LINE
  5
29D
330
1F
100
AcDbEntity
  8
0
  6
Continuous
 62
     7
370
    15
100
AcDbLine
 10
529.0902740407
 20
233.7302141707
 30
0.0
 11
526.9982646057
 21
238.237379613
 31
0.0
  0
LINE
  5
29E
330
1F
100
AcDbEntity
  8
0
  6
Continuous
 62
     7
370
    15
100
AcDbLine
 10
523.3747979742
 20
230.4307400688
 30
0.0
 11
529.0902740407
 21
233.7302141707
 31
0.0
  0
LINE
  5
29F
330
1F
100
AcDbEntity
  8
0
  6
Continuous
 62
     7
370
    15
100
AcDbLine
 10
513.4753030376
 20
236.1455968515
 30
0.0
 11
515.5673124727
 21
231.6384314092
 31
0.0
  0
LINE
  5
2A0
330
1F
100
AcDbEntity
  8
0
  6
Continuous
 62
     7
370
    15
100
AcDbLine
 10
529.0902740407
 20
233.7302141707
 30
0.0
 11
529.0902740407
 21
231.280591735
 31
0.0
  0
LINE
  5
2A1
330
1F
100
AcDbEntity
  8
0
  6
Continuous
 62
     7
370
    15
100
AcDbLine
 10
513.4753030376
 20
236.1455968515
 30
0.0
 11
513.4753030376
 21
233.6959744159
 31
0.0
  0
LINE
  5
2A2
330
1F
100
AcDbEntity
  8
0
  6
Continuous
 62
     7
370
    15
100
AcDbLine
 10
677.9229301805
 20
254.3368287714
 30
0.0
 11
683.638406247
 21
257.6363028733
 31
0.0
  0
LINE
  5
2A3
330
1F
100
AcDbEntity
  8
0
  6
Continuous
 62
     7
370
    15
100
AcDbLine
 10
670.1154446789
 20
255.5445201118
 30
0.0
 11
677.9229301805
 21
254.3368287714
 31
0.0
  0
LINE
  5
2A4
330
1F
100
AcDbEntity
  8
0
  6
Continuous
 62
     7
370
    15
100
AcDbLine
 10
668.0234352439
 20
260.0516855541
 30
0.0
 11
670.1154446789
 21
255.5445201118
 31
0.0
  0
LINE
  5
2A5
330
1F
100
AcDbEntity
  8
0
  6
Continuous
 62
     7
370
    15
100
AcDbLine
 10
673.7389113104
 20
263.351159656
 30
0.0
 11
668.0234352439
 21
260.0516855541
 31
0.0
  0
LINE
  5
2A6
330
1F
100
AcDbEntity
  8
0
  6
Continuous
 62
     7
370
    15
100
AcDbLine
 10
681.5463968119
 20
262.1434683156
 30
0.0
 11
673.7389113104
 21
263.351159656
 31
0.0
  0
LINE
  5
2A7
330
1F
100
AcDbEntity
  8
0
  6
Continuous
 62
     7
370
    15
100
AcDbLine
 10
683.638406247
 20
257.6363028733
 30
0.0
 11
681.5463968119
 21
262.1434683156
 31
0.0
  0
LINE
  5
2A8
330
1F
100
AcDbEntity
  8
0
  6
Continuous
 62
     7
370
    15
100
AcDbLine
 10
670.1154446789
 20
255.5445201118
 30
0.0
 11
670.1154446789
 21
253.0948976761
 31
0.0
  0
LINE
  5
2A9
330
1F
100
AcDbEntity
  8
0
  6
Continuous
 62
     7
370
    15
100
AcDbLine
 10
677.9229301805
 20
254.3368287714
 30
0.0
 11
677.9229301805
 21
251.8872063357
 31
0.0
  0
LINE
  5
2AA
330
1F
100
AcDbEntity
  8
0
  6
Continuous
 62
     7
370
    15
100
AcDbLine
 10
683.638406247
 20
257.6363028733
 30
0.0
 11
683.638406247
 21
255.1866804376
 31
0.0
  0
LINE
  5
2AB
330
1F
100
AcDbEntity
  8
0
  6
Continuous
 62
     7
370
    15
100
AcDbLine
 10
668.0234352439
 20
260.0516855541
 30
0.0
 11
668.0234352439
 21
257.6020631185
 31
0.0
  0
LINE
  5
2AC
330
1F
100
AcDbEntity
  8
0
  6
Continuous
 62
     7
370
    15
100
AcDbLine
 10
536.2728360809
 20
276.2478002334
 30
0.0
 11
536.2728360809
 21
273.7981777977
 31
0.0
  0
LINE
  5
2AD
330
1F
100
AcDbEntity
  8
0
  6
Continuous
 62
     7
370
    15
100
AcDbLine
 10
536.2728360809
 20
276.2478002334
 30
0.0
 11
544.0803215824
 21
275.040108893
 31
0.0
  0
LINE
  5
2AE
330
1F
100
AcDbEntity
  8
0
  6
Continuous
 62
     7
370
    15
100
AcDbLine
 10
544.0803215824
 20
275.040108893
 30
0.0
 11
544.0803215824
 21
272.5904864573
 31
0.0
  0
LINE
  5
2AF
330
1F
100
AcDbEntity
  8
0
  6
Continuous
 62
     7
370
    15
100
AcDbLine
 10
547.7037882139
 20
282.8467484372
 30
0.0
 11
539.8963027123
 21
284.0544397776
 31
0.0
  0
LINE
  5
2B0
330
1F
100
AcDbEntity
  8
0
  6
Continuous
 62
     7
370
    15
100
AcDbLine
 10
549.7957976489
 20
278.3395829949
 30
0.0
 11
547.7037882139
 21
282.8467484372
 31
0.0
  0
LINE
  5
2B1
330
1F
100
AcDbEntity
  8
0
  6
Continuous
 62
     7
370
    15
100
AcDbLine
 10
544.0803215824
 20
275.040108893
 30
0.0
 11
549.7957976489
 21
278.3395829949
 31
0.0
  0
LINE
  5
2B2
330
1F
100
AcDbEntity
  8
0
  6
Continuous
 62
     7
370
    15
100
AcDbLine
 10
534.1808266458
 20
280.7549656757
 30
0.0
 11
536.2728360809
 21
276.2478002334
 31
0.0
  0
LINE
  5
2B3
330
1F
100
AcDbEntity
  8
0
  6
Continuous
 62
     7
370
    15
100
AcDbLine
 10
539.8963027123
 20
284.0544397776
 30
0.0
 11
534.1808266458
 21
280.7549656757
 31
0.0
  0
LINE
  5
2B4
330
1F
100
AcDbEntity
  8
0
  6
Continuous
 62
     7
370
    15
100
AcDbLine
 10
549.7957976489
 20
278.3395829949
 30
0.0
 11
549.7957976489
 21
275.8899605592
 31
0.0
  0
ARC
  5
2B5
330
1F
100
AcDbEntity
  8
0
  6
Continuous
 62
     7
370
    15
100
AcDbCircle
 10
679.25974342
 20
230.6547299576
 30
0.0
 40
13.34591761862588
100
AcDbArc
 50
1.3316669179
 51
22.8663630853
  0
LINE
  5
2B6
330
1F
100
AcDbEntity
  8
0
  6
Continuous
 62
     7
370
    15
100
AcDbLine
 10
534.1808266458
 20
280.7549656757
 30
0.0
 11
534.1808266458
 21
278.3053432401
 31
0.0
  0
LINE
  5
2B7
330
1F
100
AcDbEntity
  8
0
  6
Continuous
 62
     7
370
    15
100
AcDbLine
 10
692.6020565401
 20
181.9724387658
 30
0.0
 11
692.6020565401
 21
230.964887479
 31
0.0
  0
LINE
  5
2B8
330
1F
100
AcDbEntity
  8
0
  6
Continuous
 62
     7
370
    15
100
AcDbLine
 10
627.069863752
 20
290.2926273462
 30
0.0
 11
624.977854317
 21
294.7997927885
 31
0.0
  0
LINE
  5
2B9
330
1F
100
AcDbEntity
  8
0
  6
Continuous
 62
     7
370
    15
100
AcDbLine
 10
621.3543876856
 20
286.9931532443
 30
0.0
 11
627.069863752
 21
290.2926273462
 31
0.0
  0
LINE
  5
2BA
330
1F
100
AcDbEntity
  8
0
  6
Continuous
 62
     7
370
    15
100
AcDbLine
 10
613.546902184
 20
288.2008445847
 30
0.0
 11
621.3543876856
 21
286.9931532443
 31
0.0
  0
LINE
  5
2BB
330
1F
100
AcDbEntity
  8
0
  6
Continuous
 62
     7
370
    15
100
AcDbLine
 10
611.4548927489
 20
292.708010027
 30
0.0
 11
613.546902184
 21
288.2008445847
 31
0.0
  0
LINE
  5
2BC
330
1F
100
AcDbEntity
  8
0
  6
Continuous
 62
     7
370
    15
100
AcDbLine
 10
617.1703688154
 20
296.007484129
 30
0.0
 11
611.4548927489
 21
292.708010027
 31
0.0
  0
LINE
  5
2BD
330
1F
100
AcDbEntity
  8
0
  6
Continuous
 62
     7
370
    15
100
AcDbLine
 10
624.977854317
 20
294.7997927885
 30
0.0
 11
617.1703688154
 21
296.007484129
 31
0.0
  0
LINE
  5
2BE
330
1F
100
AcDbEntity
  8
0
  6
Continuous
 62
     7
370
    15
100
AcDbLine
 10
613.546902184
 20
288.2008445847
 30
0.0
 11
613.546902184
 21
285.7512221491
 31
0.0
  0
LINE
  5
2BF
330
1F
100
AcDbEntity
  8
0
  6
Continuous
 62
     7
370
    15
100
AcDbLine
 10
621.3543876856
 20
286.9931532443
 30
0.0
 11
621.3543876856
 21
284.5435308086
 31
0.0
  0
LINE
  5
2C0
330
1F
100
AcDbEntity
  8
0
  6
Continuous
 62
     7
370
    15
100
AcDbLine
 10
627.069863752
 20
290.2926273462
 30
0.0
 11
627.069863752
 21
287.8430049105
 31
0.0
  0
LINE
  5
2C1
330
1F
100
AcDbEntity
  8
0
  6
Continuous
 62
     7
370
    15
100
AcDbLine
 10
611.4548927489
 20
292.708010027
 30
0.0
 11
611.4548927489
 21
290.2583875914
 31
0.0
  0
ARC
  5
2C2
330
1F
100
AcDbEntity
  8
0
  6
Continuous
 62
     7
370
    15
100
AcDbCircle
 10
687.7253246019
 20
181.4210353778
 30
0.0
 40
4.907806036648812
100
AcDbArc
 50
304.8612461177
 51
6.4509342757
  0
LWPOLYLINE
  5
2C3
330
1F
100
AcDbEntity
  8
0
  6
Continuous
 62
     8
370
    15
100
AcDbPolyline
 90
       78
 70
   128
 43
0.0
 10
534.5636909449
 20
207.4988603668
 10
537.6810908223
 20
205.7829102937
 10
540.9363938845
 20
204.1545339693
 10
544.322225823
 20
202.6174201897
 10
547.8309166395
 20
201.175051012
 10
551.4545180207
 20
199.8306938663
 10
555.1848213441
 20
198.5873941539
 10
559.0133762729
 20
197.4479683485
 10
562.9315098986
 20
196.4149976161
 10
566.9303463886
 20
195.4908219676
 10
571.0008270919
 20
194.6775349581
 10
575.1337310605
 20
193.9769789443
 10
579.3196959377
 20
193.3907409109
 10
583.5492391668
 20
192.9201488755
 10
587.8127794718
 20
192.5662688805
 10
592.1006585628
 20
192.3299025779
 10
596.4031630144
 20
192.2115854134
 10
600.7105462702
 20
192.2115854134
 10
605.0130507218
 20
192.3299025779
 10
609.3009298128
 20
192.5662688805
 10
613.5644701178
 20
192.9201488755
 10
617.7940133468
 20
193.3907409109
 10
621.9799782241
 20
193.9769789443
 10
626.1128821927
 20
194.6775349581
 10
630.183362896
 20
195.4908219676
 10
634.182199386
 20
196.4149976161
 10
638.1003330117
 20
197.4479683485
 10
641.9288879405
 20
198.5873941539
 10
645.6591912639
 20
199.8306938663
 10
649.2827926451
 20
201.175051012
 10
652.7914834616
 20
202.6174201897
 10
656.1773154001
 20
204.1545339693
 10
659.4326184623
 20
205.7829102937
 10
662.5500183397
 20
207.4988603668
 10
665.5224531189
 20
209.2984970097
 10
668.3431892793
 20
211.1777434666
 10
671.0058369459
 20
213.1323426399
 10
673.5043643657
 20
215.1578667337
 10
675.8331115702
 20
217.2497272846
 10
677.9868031981
 20
219.4031855555
 10
679.9605604452
 20
221.613363271
 10
681.7499121164
 20
223.8752536674
 10
683.3508047548
 20
226.1837328357
 10
684.7596118235
 20
228.533571328
 10
685.9731419215
 20
230.9194460043
 10
686.9886460127
 20
233.3359520912
 10
687.8038236538
 20
235.777615425
 10
688.4168282052
 20
238.2389048531
 10
688.8262710145
 20
240.7142447632
 10
689.031224562
 20
243.1980277143
 10
689.031224562
 20
245.6846271392
 10
688.8262710145
 20
248.1684100903
 10
688.4168282052
 20
250.6437500004
 10
687.8038236538
 20
253.1050394285
 10
686.9886460127
 20
255.5467027623
 10
685.9731419215
 20
257.9632088492
 10
684.7596118235
 20
260.3490835255
 10
683.3508047548
 20
262.6989220178
 10
681.7499121164
 20
265.0074011861
 10
679.9605604452
 20
267.2692915825
 10
677.9868031981
 20
269.4794692979
 10
675.8331115702
 20
271.6329275689
 10
673.5043643657
 20
273.7247881198
 10
671.0058369459
 20
275.7503122136
 10
668.3431892793
 20
277.7049113869
 10
665.5224531189
 20
279.5841578438
 10
662.5500183397
 20
281.3837944867
 10
659.4326184623
 20
283.0997445598
 10
656.1773154001
 20
284.7281208841
 10
652.7914834616
 20
286.2652346637
 10
649.2827926451
 20
287.7076038415
 10
645.6591912639
 20
289.0519609872
 10
641.9288879405
 20
290.2952606996
 10
638.1003330117
 20
291.434686505
 10
634.1821993859
 20
292.4676572374
 10
630.183362896
 20
293.3918328859
 10
626.1128821927
 20
294.2051198953
 10
625.1750447737
 20
294.3749524425
  0
LWPOLYLINE
  5
2C4
330
1F
100
AcDbEntity
  8
0
  6
Continuous
 62
     8
370
    15
100
AcDbPolyline
 90
       55
 70
   128
 43
0.0
 10
616.5406553928
 20
295.6439583079
 10
613.5644701178
 20
295.962505978
 10
609.3009298128
 20
296.316385973
 10
605.0130507218
 20
296.5527522756
 10
600.7105462702
 20
296.6710694401
 10
596.4031630144
 20
296.6710694401
 10
592.1006585628
 20
296.5527522756
 10
587.8127794718
 20
296.316385973
 10
583.5492391668
 20
295.962505978
 10
579.3196959377
 20
295.4919139426
 10
575.1337310605
 20
294.9056759091
 10
571.0008270919
 20
294.2051198953
 10
566.9303463886
 20
293.3918328859
 10
562.9315098986
 20
292.4676572374
 10
559.0133762729
 20
291.434686505
 10
555.1848213441
 20
290.2952606996
 10
551.4545180207
 20
289.0519609872
 10
547.8309166395
 20
287.7076038415
 10
544.322225823
 20
286.2652346637
 10
540.9363938845
 20
284.7281208841
 10
537.6810908223
 20
283.0997445598
 10
534.5636909449
 20
281.3837944867
 10
531.5912561656
 20
279.5841578438
 10
528.7705200053
 20
277.7049113869
 10
526.1078723386
 20
275.7503122136
 10
523.6093449189
 20
273.7247881198
 10
521.2805977144
 20
271.6329275689
 10
519.1269060865
 20
269.4794692979
 10
517.1531488394
 20
267.2692915825
 10
515.3637971682
 20
265.0074011861
 10
513.7629045298
 20
262.6989220178
 10
512.3540974611
 20
260.3490835255
 10
511.1405673631
 20
257.9632088492
 10
510.1250632719
 20
255.5467027623
 10
509.3098856308
 20
253.1050394285
 10
508.6968810794
 20
250.6437500004
 10
508.2874382701
 20
248.1684100903
 10
508.0824847226
 20
245.6846271392
 10
508.0824847226
 20
243.1980277143
 10
508.2874382701
 20
240.7142447632
 10
508.6968810794
 20
238.2389048531
 10
509.3098856308
 20
235.777615425
 10
510.1250632719
 20
233.3359520912
 10
511.1405673631
 20
230.9194460043
 10
512.3540974611
 20
228.533571328
 10
513.7629045298
 20
226.1837328357
 10
515.3637971682
 20
223.8752536674
 10
517.1531488394
 20
221.613363271
 10
519.1269060865
 20
219.4031855555
 10
521.2805977144
 20
217.2497272846
 10
523.6093449189
 20
215.1578667337
 10
526.1078723386
 20
213.1323426399
 10
528.7705200053
 20
211.1777434666
 10
531.5912561656
 20
209.2984970097
 10
534.5636909449
 20
207.4988603668
  0
LWPOLYLINE
  5
2C5
330
1F
100
AcDbEntity
  8
0
  6
Continuous
 62
     8
370
    15
100
AcDbPolyline
 90
       17
 70
   128
 43
0.0
 10
532.7959239919
 20
204.4369981973
 10
529.785838789
 20
206.2581342602
 10
526.9269272042
 20
208.1587179337
 10
524.2254737457
 20
210.1345713225
 10
521.6874167944
 20
212.181351072
 10
519.3183355503
 20
214.294557916
 10
517.1234377682
 20
216.4695465673
 10
515.1075483098
 20
218.7015359289
 10
513.2750985376
 20
220.9856196036
 10
511.6301165739
 20
223.3167766799
 10
510.1762184461
 20
225.6898827685
 10
508.9166001377
 20
228.0997212674
 10
507.8540305633
 20
230.5409948283
 10
506.9908454812
 20
233.0083370024
 10
506.3289423598
 20
235.4963240358
 10
505.8697762056
 20
237.9994867932
 10
505.7065394148
 20
239.3551473233
  0
LWPOLYLINE
  5
2C6
330
1F
100
AcDbEntity
  8
0
  6
Continuous
 62
     8
370
    15
100
AcDbPolyline
 90
       51
 70
   128
 43
0.0
 10
691.4241021
 20
239.5323978544
 10
691.3971568964
 20
239.2550405115
 10
691.0397656829
 20
236.7463517145
 10
690.4790769595
 20
234.2500908094
 10
689.7163232417
 20
231.7717451194
 10
688.7531812277
 20
229.3167625862
 10
687.5917681126
 20
226.8905397941
 10
686.2346369347
 20
224.4984101075
 10
684.6847709627
 20
222.1456319466
 10
682.9455771384
 20
219.8373772283
 10
681.0208785872
 20
217.5787199975
 10
678.9149062144
 20
215.374625273
 10
676.6322894043
 20
213.2299381334
 10
674.1780458439
 20
211.1493730664
 10
671.5575704934
 20
209.1375036056
 10
668.7766237261
 20
207.1987522767
 10
665.8413186667
 20
205.3373808759
 10
662.7581077527
 20
203.5574811015
 10
659.5337685509
 20
201.8629655595
 10
656.1753888586
 20
200.2575591628
 10
652.6903511232
 20
198.744790943
 10
649.086316214
 20
197.3279862932
 10
645.3712065819
 20
196.0102596573
 10
641.5531888443
 20
194.7945076845
 10
637.6406558326
 20
193.6834028615
 10
633.6422081436
 20
192.6793876377
 10
629.5666352331
 20
191.7846690567
 10
625.4228960948
 20
191.001213904
 10
621.2200995667
 20
190.330744384
 10
616.9674843077
 20
189.7747343344
 10
612.6743984891
 20
189.3344059857
 10
608.3502792452
 20
189.0107272754
 10
604.0046319285
 20
188.8044097194
 10
599.6470092151
 20
188.7159068486
 10
595.2869901053
 20
188.7454132114
 10
590.9341588674
 20
188.8928639464
 10
586.5980839692
 20
189.157934925
 10
582.2882970443
 20
189.5400434636
 10
578.0142719398
 20
190.0383496048
 10
573.7854038903
 20
190.6517579633
 10
569.6109888657
 20
191.3789201347
 10
565.5002031362
 20
192.2182376585
 10
561.4620831009
 20
193.1678655327
 10
557.5055054241
 20
194.2257162692
 10
553.6391675222
 20
195.3894644825
 10
549.8715684451
 20
196.6565520014
 10
546.210990193
 20
198.0241934925
 10
542.6654795116
 20
199.4893825831
 10
539.2428302027
 20
201.0488984694
 10
535.9505659924
 20
202.6993129973
 10
532.7959239919
 20
204.4369981973
  0
LWPOLYLINE
  5
2C7
330
1F
100
AcDbEntity
  8
0
  6
Continuous
 62
     8
370
    15
100
AcDbPolyline
 90
       51
 70
   128
 43
0.0
 10
532.7959239919
 20
196.2715900784
 10
535.9505659924
 20
194.5339048784
 10
539.2428302027
 20
192.8834903506
 10
542.6654795116
 20
191.3239744642
 10
546.210990193
 20
189.8587853736
 10
549.8715684451
 20
188.4911438825
 10
553.6391675222
 20
187.2240563636
 10
557.5055054241
 20
186.0603081504
 10
561.4620831009
 20
185.0024574139
 10
565.5002031362
 20
184.0528295396
 10
569.6109888657
 20
183.2135120158
 10
573.7854038903
 20
182.4863498445
 10
578.0142719398
 20
181.8729414859
 10
582.2882970443
 20
181.3746353448
 10
586.5980839692
 20
180.9925268062
 10
590.9341588674
 20
180.7274558276
 10
595.2869901053
 20
180.5800050925
 10
599.6470092151
 20
180.5504987297
 10
604.0046319285
 20
180.6390016005
 10
608.3502792452
 20
180.8453191565
 10
612.6743984891
 20
181.1689978669
 10
616.9674843077
 20
181.6093262155
 10
621.2200995667
 20
182.1653362652
 10
625.4228960948
 20
182.8358057851
 10
629.5666352331
 20
183.6192609379
 10
633.6422081436
 20
184.5139795189
 10
637.6406558326
 20
185.5179947426
 10
641.5531888443
 20
186.6290995656
 10
645.3712065819
 20
187.8448515384
 10
649.086316214
 20
189.1625781743
 10
652.6903511232
 20
190.5793828242
 10
656.1753888586
 20
192.0921510439
 10
659.5337685509
 20
193.6975574406
 10
662.7581077527
 20
195.3920729826
 10
665.8413186667
 20
197.171972757
 10
668.7766237261
 20
199.0333441578
 10
671.5575704934
 20
200.9720954867
 10
674.1780458439
 20
202.9839649475
 10
676.6322894043
 20
205.0645300145
 10
678.9149062144
 20
207.2092171542
 10
681.0208785872
 20
209.4133118787
 10
682.9455771384
 20
211.6719691094
 10
684.6847709627
 20
213.9802238277
 10
686.2346369347
 20
216.3330019887
 10
687.5917681126
 20
218.7251316753
 10
688.7531812277
 20
221.1513544673
 10
689.7163232417
 20
223.6063370006
 10
690.4790769595
 20
226.0846826906
 10
691.0397656829
 20
228.5809435957
 10
691.3971568964
 20
231.0896323926
 10
691.4236464193
 20
231.3620759112
  0
LWPOLYLINE
  5
2C8
330
1F
100
AcDbEntity
  8
0
  6
Continuous
 62
     8
370
    15
100
AcDbPolyline
 90
       17
 70
   128
 43
0.0
 10
505.7055853134
 20
231.1994509024
 10
505.8697762056
 20
229.8340786744
 10
506.3289423598
 20
227.3309159169
 10
506.9908454812
 20
224.8429288835
 10
507.8540305633
 20
222.3755867095
 10
508.9166001377
 20
219.9343131485
 10
510.1762184461
 20
217.5244746497
 10
511.6301165739
 20
215.151368561
 10
513.2750985376
 20
212.8202114847
 10
515.1075483098
 20
210.53612781
 10
517.1234377682
 20
208.3041384485
 10
519.3183355503
 20
206.1291497971
 10
521.6874167944
 20
204.0159429531
 10
524.2254737457
 20
201.9691632037
 10
526.9269272042
 20
199.9933098149
 10
529.785838789
 20
198.0927261413
 10
532.7959239919
 20
196.2715900784
  0
ARC
  5
2C9
330
1F
100
AcDbEntity
  8
0
  6
Continuous
 62
     8
370
    15
100
AcDbCircle
 10
585.5185742447
 20
188.5428202259
 30
0.0
 40
92.15245211353555
100
AcDbArc
 50
240.3044010806
 51
250.0644847911
  0
LWPOLYLINE
  5
2CA
330
1F
100
AcDbEntity
  8
0
  6
Continuous
 62
     8
370
    15
100
AcDbPolyline
 90
       44
 70
   128
 43
0.0
 10
556.5827865734
 20
101.0374360366
 10
559.7735584956
 20
100.0114428639
 10
563.4795389178
 20
98.9480969887
 10
567.2727270738
 20
97.9927140692
 10
571.1436925
 20
97.147669338
 10
575.0828113666
 20
96.4150637094
 10
579.0802904035
 20
95.7967185565
 10
583.1261912478
 20
95.2941711827
 10
587.2104551526
 20
94.908671
 10
591.3229279942
 20
94.6411764226
 10
595.4533855174
 20
94.4923524841
 10
599.5915587537
 20
94.4625691844
 10
603.7271595526
 20
94.5519005693
 10
607.8499061589
 20
94.760124547
 10
611.9495487748
 20
95.0867234399
 10
616.015895043
 20
95.5308852716
 10
620.0388353858
 20
96.0915057859
 10
624.0083681398
 20
96.7671911918
 10
627.914624421
 20
97.556261629
 10
631.7478926608
 20
98.456755344
 10
635.4986427505
 20
99.4664335675
 10
639.1575497344
 20
100.5827860805
 10
642.7155169931
 20
101.8030374546
 10
646.1636988594
 20
103.1241539527
 10
649.49352261
 20
104.542851071
 10
652.6967097784
 20
106.055601705
 10
655.7652967365
 20
107.6586449181
 10
658.6916544936
 20
109.3479952925
 10
661.4685076634
 20
111.1194528369
 10
664.0889525512
 20
112.9686134287
 10
666.5464743183
 20
114.8908797633
 10
668.8349631782
 20
116.8814727838
 10
670.9487295872
 20
118.9354435622
 10
672.8825183889
 20
121.0476856037
 10
674.6315218795
 20
123.2129475416
 10
676.1913917609
 20
125.4258461936
 10
677.5582499508
 20
127.680879945
 10
678.7286982243
 20
129.9724424265
 10
679.6998266626
 20
132.2948364529
 10
680.4692208874
 20
134.6422881866
 10
681.0349680634
 20
137.0089614927
 10
681.3956616541
 20
139.3889724486
 10
681.5504049182
 20
141.7764039719
 10
681.5568546423
 20
142.373725941
  0
ARC
  5
2CB
330
1F
100
AcDbEntity
  8
0
  6
Continuous
 62
     8
370
    15
100
AcDbCircle
 10
572.2539642555
 20
165.4448359288
 30
0.0
 40
65.51680394944098
100
AcDbArc
 50
228.0652823238
 51
240.3743694588
  0
SPLINE
  5
2CC
330
1F
100
AcDbEntity
  8
0
  6
Continuous
 62
     8
370
    15
100
AcDbSpline
210
0.0
220
0.0
230
1.0
 70
     8
 71
     3
 72
    15
 73
    11
 74
     0
 42
0.000000001
 43
0.00000001
 40
0.0
 40
0.0
 40
0.0
 40
0.0
 40
0.0190027099457527
 40
0.1506018851919618
 40
0.2934226951723377
 40
0.4363283860875004
 40
0.5776336189814146
 40
0.7189525287273805
 40
0.859493607295146
 40
1.0
 40
1.0
 40
1.0
 40
1.0
 10
518.6041081831545
 20
199.2290462266345
 30
0.0
 10
518.6104546439183
 20
199.3006705943256
 30
0.0
 10
518.6607521519086
 20
199.868314095213
 30
0.0
 10
518.870434038351
 20
200.6558303641784
 30
0.0
 10
519.2510592423714
 20
201.4968967277668
 30
0.0
 10
519.7775364245946
 20
201.9155045188232
 30
0.0
 10
520.4243168064193
 20
201.9337950131028
 30
0.0
 10
521.1826941820324
 20
201.5652182294483
 30
0.0
 10
522.0433632431708
 20
200.8472047319216
 30
0.0
 10
522.6847953794222
 20
200.0810658222958
 30
0.0
 10
523.0054718659302
 20
199.6980436445303
 30
0.0
  0
SPLINE
  5
2CD
330
1F
100
AcDbEntity
  8
0
  6
Continuous
 62
     8
370
    15
100
AcDbSpline
210
0.0
220
0.0
230
1.0
 70
     8
 71
     3
 72
    15
 73
    11
 74
     0
 42
0.000000001
 43
0.00000001
 40
0.0
 40
0.0
 40
0.0
 40
0.0
 40
0.0904907565048006
 40
0.2201900175836773
 40
0.3499584652273438
 40
0.4907924390549898
 40
0.6317101130055371
 40
0.7710495935323972
 40
0.9104025606472707
 40
1.0
 40
1.0
 40
1.0
 40
1.0
 10
576.8045738294173
 20
114.0974968711606
 30
0.0
 10
576.7843344632106
 20
113.6797695852124
 30
0.0
 10
576.7350862684441
 20
112.6633190438441
 30
0.0
 10
576.2592292309714
 20
111.1476424278664
 30
0.0
 10
575.3562589203848
 20
109.5904720653104
 30
0.0
 10
574.0472205785602
 20
108.2474295181136
 30
0.0
 10
572.4055157367784
 20
107.1719675872033
 30
0.0
 10
570.5247001398062
 20
106.4584503786417
 30
0.0
 10
568.7367327019203
 20
106.0889789173549
 30
0.0
 10
567.5604668063924
 20
106.1250147699614
 30
0.0
 10
567.100146976158
 20
106.1391170385192
 30
0.0
  0
SPLINE
  5
2CE
330
1F
100
AcDbEntity
  8
0
  6
Continuous
 62
     8
370
    15
100
AcDbSpline
210
0.0
220
0.0
230
1.0
 70
     8
 71
     3
 72
    13
 73
     9
 74
     0
 42
0.000000001
 43
0.00000001
 40
0.0
 40
0.0
 40
0.0
 40
0.0
 40
0.1595740701768018
 40
0.4087486277250716
 40
0.5854202975425905
 40
0.766744820485338
 40
0.8484316340614684
 40
1.0
 40
1.0
 40
1.0
 40
1.0
 10
570.8819618939267
 20
108.3642285146123
 30
0.0
 10
571.2071801242356
 20
108.5508958425819
 30
0.0
 10
572.0402259016773
 20
109.0290437902035
 30
0.0
 10
572.9868017919471
 20
109.9791551669376
 30
0.0
 10
573.7501187974739
 20
111.0933953115673
 30
0.0
 10
574.1192188864605
 20
111.990342082346
 30
0.0
 10
574.3376728852376
 20
112.8736383676177
 30
0.0
 10
574.3643093909564
 20
113.3898194902466
 30
0.0
 10
574.3816176953402
 20
113.7252321033682
 30
0.0
  0
SPLINE
  5
2CF
330
1F
100
AcDbEntity
  8
0
  6
Continuous
 62
     8
370
    15
100
AcDbSpline
210
0.0
220
0.0
230
1.0
 70
     8
 71
     3
 72
    12
 73
     8
 74
     0
 42
0.000000001
 43
0.00000001
 40
0.0
 40
0.0
 40
0.0
 40
0.0
 40
0.2279064734628025
 40
0.4620662722838927
 40
0.6900160632181145
 40
0.9240638228417257
 40
1.0
 40
1.0
 40
1.0
 40
1.0
 10
520.7298278064011
 20
197.0591377286804
 30
0.0
 10
520.5093743379963
 20
197.3955687559888
 30
0.0
 10
520.0624185722817
 20
198.0776618457858
 30
0.0
 10
519.488591070249
 20
198.7568893954164
 30
0.0
 10
518.996423795859
 20
199.143596549842
 30
0.0
 10
518.6676916341428
 20
199.2657508218903
 30
0.0
 10
518.5279565172361
 20
199.1387443822923
 30
0.0
 10
518.4937258706329
 20
199.1076318556314
 30
0.0
  0
LINE
  5
2D0
330
1F
100
AcDbEntity
  8
0
  6
Continuous
 62
     8
370
    15
100
AcDbLine
 10
692.6020565401
 20
230.964887479
 30
0.0
 11
691.2856911165
 21
230.2049658953
 31
0.0
  0
LINE
  5
2D1
330
1F
100
AcDbEntity
  8
0
  6
Continuous
 62
     8
370
    15
100
AcDbLine
 10
681.5568546423
 20
175.5961794327
 30
0.0
 11
692.6020565401
 21
181.9724387658
 31
0.0
  0
ENDSEC
  0
SECTION
  2
OBJECTS
  0
DICTIONARY
  5
C
330
0
100
AcDbDictionary
281
     1
  3
ACAD_GROUP
350
D
  3
ACAD_LAYOUT
350
1A
  3
ACAD_MLINESTYLE
350
17
  3
ACAD_PLOTSETTINGS
350
19
  3
ACAD_PLOTSTYLENAME
350
E
  3
ACAD_SCALELIST
350
47
  0
DICTIONARY
  5
D
102
{ACAD_REACTORS
330
C
102
}
330
C
100
AcDbDictionary
281
     1
  0
DICTIONARY
  5
1A
102
{ACAD_REACTORS
330
C
102
}
330
C
100
AcDbDictionary
281
     1
  3
Layout1
350
1E
  3
Layout2
350
26
  3
Model
350
22
  0
DICTIONARY
  5
17
102
{ACAD_REACTORS
330
C
102
}
330
C
100
AcDbDictionary
281
     1
  3
Standard
350
18
  0
DICTIONARY
  5
19
102
{ACAD_REACTORS
330
C
102
}
330
C
100
AcDbDictionary
281
     1
  0
ACDBDICTIONARYWDFLT
  5
E
102
{ACAD_REACTORS
330
C
102
}
330
C
100
AcDbDictionary
281
     1
  3
Normal
350
F
100
AcDbDictionaryWithDefault
340
F
  0
DICTIONARY
  5
47
102
{ACAD_REACTORS
330
C
102
}
330
C
100
AcDbDictionary
281
     1
  3
A0
350
48
  3
A1
350
49
  3
A2
350
4A
  3
A3
350
4B
  3
A4
350
4C
  3
A5
350
4D
  3
A6
350
4E
  3
A7
350
4F
  3
A8
350
50
  3
A9
350
51
  3
B0
350
52
  3
B1
350
53
  3
B2
350
54
  3
B3
350
55
  3
B4
350
56
  3
B5
350
57
  3
B6
350
58
  3
B7
350
59
  3
B8
350
5A
  3
B9
350
5B
  3
C0
350
5C
  3
C1
350
5D
  3
C2
350
5E
  3
C3
350
5F
  3
C4
350
60
  3
C5
350
61
  3
C6
350
62
  3
C7
350
63
  3
C8
350
64
  3
C9
350
65
  3
D0
350
66
  3
D1
350
67
  3
D2
350
68
  0
LAYOUT
  5
1E
102
{ACAD_REACTORS
330
1A
102
}
330
1A
100
AcDbPlotSettings
  1

  2
none_device
  4

  6

 40
0.0
 41
0.0
 42
0.0
 43
0.0
 44
0.0
 45
0.0
 46
0.0
 47
0.0
 48
0.0
 49
0.0
140
0.0
141
0.0
142
1.0
143
1.0
 70
   688
 72
     1
 73
     0
 74
     5
  7

 75
    16
147
1.0
148
0.0
149
0.0
100
AcDbLayout
  1
Layout1
 70
     1
 71
     1
 10
0.0
 20
0.0
 11
420.0
 21
297.0
 12
0.0
 22
0.0
 32
0.0
 14
1.0000000000E+20
 24
1.0000000000E+20
 34
1.0000000000E+20
 15
-1.0000000000E+20
 25
-1.0000000000E+20
 35
-1.0000000000E+20
146
0.0
 13
0.0
 23
0.0
 33
0.0
 16
1.0
 26
0.0
 36
0.0
 17
0.0
 27
1.0
 37
0.0
 76
     0
330
1B
  0
LAYOUT
  5
26
102
{ACAD_REACTORS
330
1A
102
}
330
1A
100
AcDbPlotSettings
  1

  2
none_device
  4

  6

 40
0.0
 41
0.0
 42
0.0
 43
0.0
 44
0.0
 45
0.0
 46
0.0
 47
0.0
 48
0.0
 49
0.0
140
0.0
141
0.0
142
1.0
143
1.0
 70
   688
 72
     1
 73
     0
 74
     5
  7

 75
    16
147
1.0
148
0.0
149
0.0
100
AcDbLayout
  1
Layout2
 70
     1
 71
     2
 10
0.0
 20
0.0
 11
0.0
 21
0.0
 12
0.0
 22
0.0
 32
0.0
 14
0.0
 24
0.0
 34
0.0
 15
0.0
 25
0.0
 35
0.0
146
0.0
 13
0.0
 23
0.0
 33
0.0
 16
1.0
 26
0.0
 36
0.0
 17
0.0
 27
1.0
 37
0.0
 76
     0
330
23
  0
LAYOUT
  5
22
102
{ACAD_REACTORS
330
1A
102
}
330
1A
100
AcDbPlotSettings
  1

  2
none_device
  4
Letter_(8.50_x_11.00_Inches)
  6

 40
6.35
 41
6.35
 42
6.35000508
 43
6.35000508
 44
215.9
 45
279.4
 46
0.0
 47
0.0
 48
0.0
 49
0.0
140
0.0
141
0.0
142
1.0
143
1.0
 70
  1712
 72
     1
 73
     0
 74
     0
  7

 75
     0
147
1.0
148
0.0
149
0.0
100
AcDbLayout
  1
Model
 70
     1
 71
     0
 10
0.0
 20
0.0
 11
841.0
 21
594.0
 12
0.0
 22
0.0
 32
0.0
 14
0.0
 24
0.0
 34
0.0
 15
841.0
 25
594.0
 35
0.0
146
0.0
 13
0.0
 23
0.0
 33
0.0
 16
1.0
 26
0.0
 36
0.0
 17
0.0
 27
1.0
 37
0.0
 76
     0
330
1F
331
29
  0
MLINESTYLE
  5
18
102
{ACAD_REACTORS
330
17
102
}
330
17
100
AcDbMlineStyle
  2
Standard
 70
     0
  3

 62
   256
 51
90.0
 52
90.0
 71
     2
 49
0.5
 62
   256
  6
BYLAYER
 49
-0.5
 62
   256
  6
BYLAYER
  0
ACDBPLACEHOLDER
  5
F
102
{ACAD_REACTORS
330
E
102
}
330
E
  0
SCALE
  5
48
102
{ACAD_REACTORS
330
47
102
}
330
47
100
AcDbScale
 70
     0
300
1:1
140
1.0
141
1.0
290
     1
  0
SCALE
  5
49
102
{ACAD_REACTORS
330
47
102
}
330
47
100
AcDbScale
 70
     0
300
1:2
140
1.0
141
2.0
290
     0
  0
SCALE
  5
4A
102
{ACAD_REACTORS
330
47
102
}
330
47
100
AcDbScale
 70
     0
300
1:4
140
1.0
141
4.0
290
     0
  0
SCALE
  5
4B
102
{ACAD_REACTORS
330
47
102
}
330
47
100
AcDbScale
 70
     0
300
1:5
140
1.0
141
5.0
290
     0
  0
SCALE
  5
4C
102
{ACAD_REACTORS
330
47
102
}
330
47
100
AcDbScale
 70
     0
300
1:8
140
1.0
141
8.0
290
     0
  0
SCALE
  5
4D
102
{ACAD_REACTORS
330
47
102
}
330
47
100
AcDbScale
 70
     0
300
1:10
140
1.0
141
10.0
290
     0
  0
SCALE
  5
4E
102
{ACAD_REACTORS
330
47
102
}
330
47
100
AcDbScale
 70
     0
300
1:16
140
1.0
141
16.0
290
     0
  0
SCALE
  5
4F
102
{ACAD_REACTORS
330
47
102
}
330
47
100
AcDbScale
 70
     0
300
1:20
140
1.0
141
20.0
290
     0
  0
SCALE
  5
50
102
{ACAD_REACTORS
330
47
102
}
330
47
100
AcDbScale
 70
     0
300
1:30
140
1.0
141
30.0
290
     0
  0
SCALE
  5
51
102
{ACAD_REACTORS
330
47
102
}
330
47
100
AcDbScale
 70
     0
300
1:40
140
1.0
141
40.0
290
     0
  0
SCALE
  5
52
102
{ACAD_REACTORS
330
47
102
}
330
47
100
AcDbScale
 70
     0
300
1:50
140
1.0
141
50.0
290
     0
  0
SCALE
  5
53
102
{ACAD_REACTORS
330
47
102
}
330
47
100
AcDbScale
 70
     0
300
1:100
140
1.0
141
100.0
290
     0
  0
SCALE
  5
54
102
{ACAD_REACTORS
330
47
102
}
330
47
100
AcDbScale
 70
     0
300
2:1
140
2.0
141
1.0
290
     0
  0
SCALE
  5
55
102
{ACAD_REACTORS
330
47
102
}
330
47
100
AcDbScale
 70
     0
300
4:1
140
4.0
141
1.0
290
     0
  0
SCALE
  5
56
102
{ACAD_REACTORS
330
47
102
}
330
47
100
AcDbScale
 70
     0
300
8:1
140
8.0
141
1.0
290
     0
  0
SCALE
  5
57
102
{ACAD_REACTORS
330
47
102
}
330
47
100
AcDbScale
 70
     0
300
10:1
140
10.0
141
1.0
290
     0
  0
SCALE
  5
58
102
{ACAD_REACTORS
330
47
102
}
330
47
100
AcDbScale
 70
     0
300
100:1
140
100.0
141
1.0
290
     0
  0
SCALE
  5
59
102
{ACAD_REACTORS
330
47
102
}
330
47
100
AcDbScale
 70
     0
300
1/128" = 1'-0"
140
0.0078125
141
12.0
290
     0
  0
SCALE
  5
5A
102
{ACAD_REACTORS
330
47
102
}
330
47
100
AcDbScale
 70
     0
300
1/64" = 1'-0"
140
0.015625
141
12.0
290
     0
  0
SCALE
  5
5B
102
{ACAD_REACTORS
330
47
102
}
330
47
100
AcDbScale
 70
     0
300
1/32" = 1'-0"
140
0.03125
141
12.0
290
     0
  0
SCALE
  5
5C
102
{ACAD_REACTORS
330
47
102
}
330
47
100
AcDbScale
 70
     0
300
1/16" = 1'-0"
140
0.0625
141
12.0
290
     0
  0
SCALE
  5
5D
102
{ACAD_REACTORS
330
47
102
}
330
47
100
AcDbScale
 70
     0
300
3/32" = 1'-0"
140
0.09375
141
12.0
290
     0
  0
SCALE
  5
5E
102
{ACAD_REACTORS
330
47
102
}
330
47
100
AcDbScale
 70
     0
300
1/8" = 1'-0"
140
0.125
141
12.0
290
     0
  0
SCALE
  5
5F
102
{ACAD_REACTORS
330
47
102
}
330
47
100
AcDbScale
 70
     0
300
3/16" = 1'-0"
140
0.1875
141
12.0
290
     0
  0
SCALE
  5
60
102
{ACAD_REACTORS
330
47
102
}
330
47
100
AcDbScale
 70
     0
300
1/4" = 1'-0"
140
0.25
141
12.0
290
     0
  0
SCALE
  5
61
102
{ACAD_REACTORS
330
47
102
}
330
47
100
AcDbScale
 70
     0
300
3/8" = 1'-0"
140
0.375
141
12.0
290
     0
  0
SCALE
  5
62
102
{ACAD_REACTORS
330
47
102
}
330
47
100
AcDbScale
 70
     0
300
1/2" = 1'-0"
140
0.5
141
12.0
290
     0
  0
SCALE
  5
63
102
{ACAD_REACTORS
330
47
102
}
330
47
100
AcDbScale
 70
     0
300
3/4" = 1'-0"
140
0.75
141
12.0
290
     0
  0
SCALE
  5
64
102
{ACAD_REACTORS
330
47
102
}
330
47
100
AcDbScale
 70
     0
300
1" = 1'-0"
140
1.0
141
12.0
290
     0
  0
SCALE
  5
65
102
{ACAD_REACTORS
330
47
102
}
330
47
100
AcDbScale
 70
     0
300
1-1/2" = 1'-0"
140
1.5
141
12.0
290
     0
  0
SCALE
  5
66
102
{ACAD_REACTORS
330
47
102
}
330
47
100
AcDbScale
 70
     0
300
3" = 1'-0"
140
3.0
141
12.0
290
     0
  0
SCALE
  5
67
102
{ACAD_REACTORS
330
47
102
}
330
47
100
AcDbScale
 70
     0
300
6" = 1'-0"
140
6.0
141
12.0
290
     0
  0
SCALE
  5
68
102
{ACAD_REACTORS
330
47
102
}
330
47
100
AcDbScale
 70
     0
300
1'-0" = 1'-0"
140
12.0
141
12.0
290
     0
  0
ENDSEC
  0
EOF
